  0
SECTION
  2
HEADER
  9
$ANGBASE
  50
0.0
  9
$ANGDIR
  70
  1
  9
$MEASUREMENT
  70
0
  0
ENDSEC
  0
SECTION
  2
TABLES
  0
TABLE
  2
LTYPE
  70
4
  0
LTYPE
  5
40F
  2
CONTINUOUS
  70
0
  3
Solid line
  72
65
  73
0
  40
0.0
  0
LTYPE
  5
410
  2
DASHDOT
 70
0
  3
Dash Dot ____ _ ____ _
 72
65
 73
4
 40
2.0
 49
1.25
 49
-0.25
 49
0.25
 49
-0.25
  0
LTYPE
  5
411
  2
DASHED
 70
0
  3
Dashed __ __ __ __ __
 72
65
 73
2
 40
0.75
 49
0.5
 49
-0.25
  0
LTYPE
  5
43B
  2
DOTTED
 70
0
  3
Dotted .  .  .  .
 72
65
 73
2
 40
0.2
 49
0.0
 49
-0.2
  0
ENDTAB
  0
TABLE
  2
STYLE
  70
4
  0
STYLE
  2
KICAD
  70
0
  40
0
  41
1
  42
1
  50
0
  71
0
  3
isocp.shx
  0
STYLE
  2
KICADB
  70
0
  40
0
  41
1
  42
1
  50
0
  71
0
  3
isocp.shx
  0
STYLE
  2
KICADI
  70
0
  40
0
  41
1
  42
1
  50
15
  71
0
  3
isocp.shx
  0
STYLE
  2
KICADBI
  70
0
  40
0
  41
1
  42
1
  50
15
  71
0
  3
isocp.shx
  0
ENDTAB
  0
TABLE
  2
LAYER
  70
30
  0
LAYER
  2
BLACK
  70
0
  62
7
  6
CONTINUOUS
  0
LAYER
  2
GRAY1
  70
0
  62
251
  6
CONTINUOUS
  0
LAYER
  2
GRAY2
  70
0
  62
8
  6
CONTINUOUS
  0
LAYER
  2
GRAY3
  70
0
  62
9
  6
CONTINUOUS
  0
LAYER
  2
WHITE
  70
0
  62
7
  6
CONTINUOUS
  0
LAYER
  2
LYELLOW
  70
0
  62
51
  6
CONTINUOUS
  0
LAYER
  2
BLUE1
  70
0
  62
178
  6
CONTINUOUS
  0
LAYER
  2
GREEN1
  70
0
  62
98
  6
CONTINUOUS
  0
LAYER
  2
CYAN1
  70
0
  62
138
  6
CONTINUOUS
  0
LAYER
  2
RED1
  70
0
  62
18
  6
CONTINUOUS
  0
LAYER
  2
MAGENTA1
  70
0
  62
228
  6
CONTINUOUS
  0
LAYER
  2
BROWN1
  70
0
  62
58
  6
CONTINUOUS
  0
LAYER
  2
BLUE2
  70
0
  62
5
  6
CONTINUOUS
  0
LAYER
  2
GREEN2
  70
0
  62
3
  6
CONTINUOUS
  0
LAYER
  2
CYAN2
  70
0
  62
4
  6
CONTINUOUS
  0
LAYER
  2
RED2
  70
0
  62
1
  6
CONTINUOUS
  0
LAYER
  2
MAGENTA2
  70
0
  62
6
  6
CONTINUOUS
  0
LAYER
  2
BROWN2
  70
0
  62
54
  6
CONTINUOUS
  0
LAYER
  2
BLUE3
  70
0
  62
171
  6
CONTINUOUS
  0
LAYER
  2
GREEN3
  70
0
  62
91
  6
CONTINUOUS
  0
LAYER
  2
CYAN3
  70
0
  62
131
  6
CONTINUOUS
  0
LAYER
  2
RED3
  70
0
  62
11
  6
CONTINUOUS
  0
LAYER
  2
MAGENTA3
  70
0
  62
221
  6
CONTINUOUS
  0
LAYER
  2
YELLOW3
  70
0
  62
2
  6
CONTINUOUS
  0
LAYER
  2
BLUE4
  70
0
  62
5
  6
CONTINUOUS
  0
LAYER
  2
GREEN4
  70
0
  62
3
  6
CONTINUOUS
  0
LAYER
  2
CYAN4
  70
0
  62
4
  6
CONTINUOUS
  0
LAYER
  2
RED4
  70
0
  62
1
  6
CONTINUOUS
  0
LAYER
  2
MAGENTA4
  70
0
  62
6
  6
CONTINUOUS
  0
LAYER
  2
YELLOW4
  70
0
  62
2
  6
CONTINUOUS
  0
ENDTAB
  0
ENDSEC
  0
SECTION
  2
ENTITIES
0
LINE
8
BLACK
6
CONTINUOUS
10
100.039
20
-122.918
11
100.161
21
-122.989
0
LINE
8
BLACK
6
CONTINUOUS
10
100.161
20
-122.989
11
100.252
21
-123.097
0
LINE
8
BLACK
6
CONTINUOUS
10
100.252
20
-123.097
11
100.3
21
-123.229
0
LINE
8
BLACK
6
CONTINUOUS
10
100.3
20
-123.229
11
100.3
21
-123.371
0
LINE
8
BLACK
6
CONTINUOUS
10
100.3
20
-123.371
11
100.252
21
-123.503
0
LINE
8
BLACK
6
CONTINUOUS
10
100.252
20
-123.503
11
100.161
21
-123.611
0
LINE
8
BLACK
6
CONTINUOUS
10
100.161
20
-123.611
11
100.05
21
-123.675
0
LINE
8
BLACK
6
CONTINUOUS
10
100.05
20
-123.675
11
100.05
21
-124.738
0
LINE
8
BLACK
6
CONTINUOUS
10
100.05
20
-124.738
11
109.262
21
-133.95
0
LINE
8
BLACK
6
CONTINUOUS
10
109.262
20
-133.95
11
119.978
21
-133.95
0
LINE
8
BLACK
6
CONTINUOUS
10
119.978
20
-133.95
11
122.14
21
-131.788
0
LINE
8
BLACK
6
CONTINUOUS
10
122.14
20
-131.788
11
122.093
21
-131.732
0
LINE
8
BLACK
6
CONTINUOUS
10
122.093
20
-131.732
11
121.99
21
-131.45
0
LINE
8
BLACK
6
CONTINUOUS
10
121.99
20
-131.45
11
121.99
21
-131.15
0
LINE
8
BLACK
6
CONTINUOUS
10
121.99
20
-131.15
11
122.093
21
-130.868
0
LINE
8
BLACK
6
CONTINUOUS
10
122.093
20
-130.868
11
122.285
21
-130.639
0
LINE
8
BLACK
6
CONTINUOUS
10
122.285
20
-130.639
11
122.545
21
-130.489
0
LINE
8
BLACK
6
CONTINUOUS
10
122.545
20
-130.489
11
122.766
21
-130.45
0
LINE
8
BLACK
6
CONTINUOUS
10
122.766
20
-130.45
11
122.914
21
-130.45
0
LINE
8
BLACK
6
CONTINUOUS
10
122.914
20
-130.45
11
123.135
21
-130.489
0
LINE
8
BLACK
6
CONTINUOUS
10
123.135
20
-130.489
11
123.395
21
-130.639
0
LINE
8
BLACK
6
CONTINUOUS
10
123.395
20
-130.639
11
123.587
21
-130.868
0
LINE
8
BLACK
6
CONTINUOUS
10
123.587
20
-130.868
11
123.69
21
-131.15
0
LINE
8
BLACK
6
CONTINUOUS
10
123.69
20
-131.15
11
123.69
21
-131.45
0
LINE
8
BLACK
6
CONTINUOUS
10
123.69
20
-131.45
11
123.587
21
-131.732
0
LINE
8
BLACK
6
CONTINUOUS
10
123.587
20
-131.732
11
123.395
21
-131.961
0
LINE
8
BLACK
6
CONTINUOUS
10
123.395
20
-131.961
11
123.135
21
-132.111
0
LINE
8
BLACK
6
CONTINUOUS
10
123.135
20
-132.111
11
122.914
21
-132.15
0
LINE
8
BLACK
6
CONTINUOUS
10
122.914
20
-132.15
11
122.766
21
-132.15
0
LINE
8
BLACK
6
CONTINUOUS
10
122.766
20
-132.15
11
122.545
21
-132.111
0
LINE
8
BLACK
6
CONTINUOUS
10
122.545
20
-132.111
11
122.352
21
-132
0
LINE
8
BLACK
6
CONTINUOUS
10
122.352
20
-132
11
120.151
21
-134.201
0
LINE
8
BLACK
6
CONTINUOUS
10
120.151
20
-134.201
11
120.138
21
-134.217
0
LINE
8
BLACK
6
CONTINUOUS
10
120.138
20
-134.217
11
120.121
21
-134.227
0
LINE
8
BLACK
6
CONTINUOUS
10
120.121
20
-134.227
11
120.104
21
-134.238
0
LINE
8
BLACK
6
CONTINUOUS
10
120.104
20
-134.238
11
120.098
21
-134.24
0
LINE
8
BLACK
6
CONTINUOUS
10
120.098
20
-134.24
11
120.092
21
-134.243
0
LINE
8
BLACK
6
CONTINUOUS
10
120.092
20
-134.243
11
120.072
21
-134.247
0
LINE
8
BLACK
6
CONTINUOUS
10
120.072
20
-134.247
11
120.053
21
-134.252
0
LINE
8
BLACK
6
CONTINUOUS
10
120.053
20
-134.252
11
120.033
21
-134.25
0
LINE
8
BLACK
6
CONTINUOUS
10
120.033
20
-134.25
11
109.207
21
-134.25
0
LINE
8
BLACK
6
CONTINUOUS
10
109.207
20
-134.25
11
109.187
21
-134.252
0
LINE
8
BLACK
6
CONTINUOUS
10
109.187
20
-134.252
11
109.168
21
-134.247
0
LINE
8
BLACK
6
CONTINUOUS
10
109.168
20
-134.247
11
109.148
21
-134.243
0
LINE
8
BLACK
6
CONTINUOUS
10
109.148
20
-134.243
11
109.142
21
-134.24
0
LINE
8
BLACK
6
CONTINUOUS
10
109.142
20
-134.24
11
109.136
21
-134.238
0
LINE
8
BLACK
6
CONTINUOUS
10
109.136
20
-134.238
11
109.119
21
-134.227
0
LINE
8
BLACK
6
CONTINUOUS
10
109.119
20
-134.227
11
109.102
21
-134.217
0
LINE
8
BLACK
6
CONTINUOUS
10
109.102
20
-134.217
11
109.089
21
-134.201
0
LINE
8
BLACK
6
CONTINUOUS
10
109.089
20
-134.201
11
99.7986
21
-124.911
0
LINE
8
BLACK
6
CONTINUOUS
10
99.7986
20
-124.911
11
99.7833
21
-124.898
0
LINE
8
BLACK
6
CONTINUOUS
10
99.7833
20
-124.898
11
99.7734
21
-124.881
0
LINE
8
BLACK
6
CONTINUOUS
10
99.7734
20
-124.881
11
99.762
21
-124.864
0
LINE
8
BLACK
6
CONTINUOUS
10
99.762
20
-124.864
11
99.7602
21
-124.858
0
LINE
8
BLACK
6
CONTINUOUS
10
99.7602
20
-124.858
11
99.7569
21
-124.852
0
LINE
8
BLACK
6
CONTINUOUS
10
99.7569
20
-124.852
11
99.7534
21
-124.832
0
LINE
8
BLACK
6
CONTINUOUS
10
99.7534
20
-124.832
11
99.7483
21
-124.813
0
LINE
8
BLACK
6
CONTINUOUS
10
99.7483
20
-124.813
11
99.75
21
-124.793
0
LINE
8
BLACK
6
CONTINUOUS
10
99.75
20
-124.793
11
99.75
21
-123.675
0
LINE
8
BLACK
6
CONTINUOUS
10
99.75
20
-123.675
11
99.6389
21
-123.611
0
LINE
8
BLACK
6
CONTINUOUS
10
99.6389
20
-123.611
11
99.5482
21
-123.503
0
LINE
8
BLACK
6
CONTINUOUS
10
99.5482
20
-123.503
11
99.5
21
-123.371
0
LINE
8
BLACK
6
CONTINUOUS
10
99.5
20
-123.371
11
99.5
21
-123.229
0
LINE
8
BLACK
6
CONTINUOUS
10
99.5
20
-123.229
11
99.5482
21
-123.097
0
LINE
8
BLACK
6
CONTINUOUS
10
99.5482
20
-123.097
11
99.6389
21
-122.989
0
LINE
8
BLACK
6
CONTINUOUS
10
99.6389
20
-122.989
11
99.7611
21
-122.918
0
LINE
8
BLACK
6
CONTINUOUS
10
99.7611
20
-122.918
11
99.9
21
-122.894
0
LINE
8
BLACK
6
CONTINUOUS
10
99.9
20
-122.894
11
100.039
21
-122.918
0
LINE
8
BLACK
6
CONTINUOUS
10
103.15
20
-118.9
11
103.541
21
-118.9
0
LINE
8
BLACK
6
CONTINUOUS
10
103.541
20
-118.9
11
103.568
21
-118.898
0
LINE
8
BLACK
6
CONTINUOUS
10
103.568
20
-118.898
11
103.593
21
-118.905
0
LINE
8
BLACK
6
CONTINUOUS
10
103.593
20
-118.905
11
103.619
21
-118.909
0
LINE
8
BLACK
6
CONTINUOUS
10
103.619
20
-118.909
11
103.627
21
-118.914
0
LINE
8
BLACK
6
CONTINUOUS
10
103.627
20
-118.914
11
103.636
21
-118.916
0
LINE
8
BLACK
6
CONTINUOUS
10
103.636
20
-118.916
11
103.658
21
-118.931
0
LINE
8
BLACK
6
CONTINUOUS
10
103.658
20
-118.931
11
103.681
21
-118.944
0
LINE
8
BLACK
6
CONTINUOUS
10
103.681
20
-118.944
11
103.698
21
-118.965
0
LINE
8
BLACK
6
CONTINUOUS
10
103.698
20
-118.965
11
107.925
21
-123.192
0
LINE
8
BLACK
6
CONTINUOUS
10
107.925
20
-123.192
11
111.1
21
-120.017
0
LINE
8
BLACK
6
CONTINUOUS
10
111.1
20
-120.017
11
111.1
21
-119.7
0
LINE
8
BLACK
6
CONTINUOUS
10
111.1
20
-119.7
11
110.85
21
-119.7
0
LINE
8
BLACK
6
CONTINUOUS
10
110.85
20
-119.7
11
110.85
21
-118.5
0
LINE
8
BLACK
6
CONTINUOUS
10
110.85
20
-118.5
11
111.75
21
-118.5
0
LINE
8
BLACK
6
CONTINUOUS
10
111.75
20
-118.5
11
111.75
21
-119.267
0
LINE
8
BLACK
6
CONTINUOUS
10
111.75
20
-119.267
11
112.395
21
-119.912
0
LINE
8
BLACK
6
CONTINUOUS
10
112.395
20
-119.912
11
112.5
21
-119.894
0
LINE
8
BLACK
6
CONTINUOUS
10
112.5
20
-119.894
11
112.639
21
-119.918
0
LINE
8
BLACK
6
CONTINUOUS
10
112.639
20
-119.918
11
112.761
21
-119.989
0
LINE
8
BLACK
6
CONTINUOUS
10
112.761
20
-119.989
11
112.852
21
-120.097
0
LINE
8
BLACK
6
CONTINUOUS
10
112.852
20
-120.097
11
112.9
21
-120.229
0
LINE
8
BLACK
6
CONTINUOUS
10
112.9
20
-120.229
11
112.9
21
-120.371
0
LINE
8
BLACK
6
CONTINUOUS
10
112.9
20
-120.371
11
112.852
21
-120.503
0
LINE
8
BLACK
6
CONTINUOUS
10
112.852
20
-120.503
11
112.761
21
-120.611
0
LINE
8
BLACK
6
CONTINUOUS
10
112.761
20
-120.611
11
112.639
21
-120.682
0
LINE
8
BLACK
6
CONTINUOUS
10
112.639
20
-120.682
11
112.5
21
-120.706
0
LINE
8
BLACK
6
CONTINUOUS
10
112.5
20
-120.706
11
112.361
21
-120.682
0
LINE
8
BLACK
6
CONTINUOUS
10
112.361
20
-120.682
11
112.239
21
-120.611
0
LINE
8
BLACK
6
CONTINUOUS
10
112.239
20
-120.611
11
112.148
21
-120.503
0
LINE
8
BLACK
6
CONTINUOUS
10
112.148
20
-120.503
11
112.1
21
-120.371
0
LINE
8
BLACK
6
CONTINUOUS
10
112.1
20
-120.371
11
112.1
21
-120.229
0
LINE
8
BLACK
6
CONTINUOUS
10
112.1
20
-120.229
11
112.112
21
-120.195
0
LINE
8
BLACK
6
CONTINUOUS
10
112.112
20
-120.195
11
111.617
21
-119.7
0
LINE
8
BLACK
6
CONTINUOUS
10
111.617
20
-119.7
11
111.5
21
-119.7
0
LINE
8
BLACK
6
CONTINUOUS
10
111.5
20
-119.7
11
111.5
21
-120.091
0
LINE
8
BLACK
6
CONTINUOUS
10
111.5
20
-120.091
11
111.502
21
-120.118
0
LINE
8
BLACK
6
CONTINUOUS
10
111.502
20
-120.118
11
111.495
21
-120.143
0
LINE
8
BLACK
6
CONTINUOUS
10
111.495
20
-120.143
11
111.491
21
-120.169
0
LINE
8
BLACK
6
CONTINUOUS
10
111.491
20
-120.169
11
111.486
21
-120.177
0
LINE
8
BLACK
6
CONTINUOUS
10
111.486
20
-120.177
11
111.484
21
-120.186
0
LINE
8
BLACK
6
CONTINUOUS
10
111.484
20
-120.186
11
111.469
21
-120.208
0
LINE
8
BLACK
6
CONTINUOUS
10
111.469
20
-120.208
11
111.456
21
-120.231
0
LINE
8
BLACK
6
CONTINUOUS
10
111.456
20
-120.231
11
111.435
21
-120.248
0
LINE
8
BLACK
6
CONTINUOUS
10
111.435
20
-120.248
11
108.2
21
-123.483
0
LINE
8
BLACK
6
CONTINUOUS
10
108.2
20
-123.483
11
108.2
21
-130.617
0
LINE
8
BLACK
6
CONTINUOUS
10
108.2
20
-130.617
11
110.283
21
-132.7
0
LINE
8
BLACK
6
CONTINUOUS
10
110.283
20
-132.7
11
117.367
21
-132.7
0
LINE
8
BLACK
6
CONTINUOUS
10
117.367
20
-132.7
11
118.902
21
-131.165
0
LINE
8
BLACK
6
CONTINUOUS
10
118.902
20
-131.165
11
118.919
21
-131.144
0
LINE
8
BLACK
6
CONTINUOUS
10
118.919
20
-131.144
11
118.942
21
-131.131
0
LINE
8
BLACK
6
CONTINUOUS
10
118.942
20
-131.131
11
118.964
21
-131.116
0
LINE
8
BLACK
6
CONTINUOUS
10
118.964
20
-131.116
11
118.973
21
-131.114
0
LINE
8
BLACK
6
CONTINUOUS
10
118.973
20
-131.114
11
118.981
21
-131.109
0
LINE
8
BLACK
6
CONTINUOUS
10
118.981
20
-131.109
11
119.007
21
-131.105
0
LINE
8
BLACK
6
CONTINUOUS
10
119.007
20
-131.105
11
119.032
21
-131.098
0
LINE
8
BLACK
6
CONTINUOUS
10
119.032
20
-131.098
11
119.059
21
-131.1
0
LINE
8
BLACK
6
CONTINUOUS
10
119.059
20
-131.1
11
119.45
21
-131.1
0
LINE
8
BLACK
6
CONTINUOUS
10
119.45
20
-131.1
11
119.45
21
-130.45
0
LINE
8
BLACK
6
CONTINUOUS
10
119.45
20
-130.45
11
121.15
21
-130.45
0
LINE
8
BLACK
6
CONTINUOUS
10
121.15
20
-130.45
11
121.15
21
-132.15
0
LINE
8
BLACK
6
CONTINUOUS
10
121.15
20
-132.15
11
119.45
21
-132.15
0
LINE
8
BLACK
6
CONTINUOUS
10
119.45
20
-132.15
11
119.45
21
-131.5
0
LINE
8
BLACK
6
CONTINUOUS
10
119.45
20
-131.5
11
119.133
21
-131.5
0
LINE
8
BLACK
6
CONTINUOUS
10
119.133
20
-131.5
11
117.598
21
-133.035
0
LINE
8
BLACK
6
CONTINUOUS
10
117.598
20
-133.035
11
117.581
21
-133.056
0
LINE
8
BLACK
6
CONTINUOUS
10
117.581
20
-133.056
11
117.558
21
-133.069
0
LINE
8
BLACK
6
CONTINUOUS
10
117.558
20
-133.069
11
117.536
21
-133.084
0
LINE
8
BLACK
6
CONTINUOUS
10
117.536
20
-133.084
11
117.527
21
-133.086
0
LINE
8
BLACK
6
CONTINUOUS
10
117.527
20
-133.086
11
117.519
21
-133.091
0
LINE
8
BLACK
6
CONTINUOUS
10
117.519
20
-133.091
11
117.493
21
-133.095
0
LINE
8
BLACK
6
CONTINUOUS
10
117.493
20
-133.095
11
117.468
21
-133.102
0
LINE
8
BLACK
6
CONTINUOUS
10
117.468
20
-133.102
11
117.441
21
-133.1
0
LINE
8
BLACK
6
CONTINUOUS
10
117.441
20
-133.1
11
110.209
21
-133.1
0
LINE
8
BLACK
6
CONTINUOUS
10
110.209
20
-133.1
11
110.182
21
-133.102
0
LINE
8
BLACK
6
CONTINUOUS
10
110.182
20
-133.102
11
110.157
21
-133.095
0
LINE
8
BLACK
6
CONTINUOUS
10
110.157
20
-133.095
11
110.131
21
-133.091
0
LINE
8
BLACK
6
CONTINUOUS
10
110.131
20
-133.091
11
110.123
21
-133.086
0
LINE
8
BLACK
6
CONTINUOUS
10
110.123
20
-133.086
11
110.114
21
-133.084
0
LINE
8
BLACK
6
CONTINUOUS
10
110.114
20
-133.084
11
110.092
21
-133.069
0
LINE
8
BLACK
6
CONTINUOUS
10
110.092
20
-133.069
11
110.069
21
-133.056
0
LINE
8
BLACK
6
CONTINUOUS
10
110.069
20
-133.056
11
110.052
21
-133.035
0
LINE
8
BLACK
6
CONTINUOUS
10
110.052
20
-133.035
11
107.865
21
-130.848
0
LINE
8
BLACK
6
CONTINUOUS
10
107.865
20
-130.848
11
107.844
21
-130.831
0
LINE
8
BLACK
6
CONTINUOUS
10
107.844
20
-130.831
11
107.831
21
-130.808
0
LINE
8
BLACK
6
CONTINUOUS
10
107.831
20
-130.808
11
107.816
21
-130.786
0
LINE
8
BLACK
6
CONTINUOUS
10
107.816
20
-130.786
11
107.814
21
-130.777
0
LINE
8
BLACK
6
CONTINUOUS
10
107.814
20
-130.777
11
107.809
21
-130.769
0
LINE
8
BLACK
6
CONTINUOUS
10
107.809
20
-130.769
11
107.805
21
-130.743
0
LINE
8
BLACK
6
CONTINUOUS
10
107.805
20
-130.743
11
107.798
21
-130.718
0
LINE
8
BLACK
6
CONTINUOUS
10
107.798
20
-130.718
11
107.8
21
-130.691
0
LINE
8
BLACK
6
CONTINUOUS
10
107.8
20
-130.691
11
107.8
21
-123.594
0
LINE
8
BLACK
6
CONTINUOUS
10
107.8
20
-123.594
11
107.781
21
-123.591
0
LINE
8
BLACK
6
CONTINUOUS
10
107.781
20
-123.591
11
107.773
21
-123.586
0
LINE
8
BLACK
6
CONTINUOUS
10
107.773
20
-123.586
11
107.764
21
-123.584
0
LINE
8
BLACK
6
CONTINUOUS
10
107.764
20
-123.584
11
107.742
21
-123.569
0
LINE
8
BLACK
6
CONTINUOUS
10
107.742
20
-123.569
11
107.719
21
-123.556
0
LINE
8
BLACK
6
CONTINUOUS
10
107.719
20
-123.556
11
107.702
21
-123.535
0
LINE
8
BLACK
6
CONTINUOUS
10
107.702
20
-123.535
11
103.467
21
-119.3
0
LINE
8
BLACK
6
CONTINUOUS
10
103.467
20
-119.3
11
103.15
21
-119.3
0
LINE
8
BLACK
6
CONTINUOUS
10
103.15
20
-119.3
11
103.15
21
-119.7
0
LINE
8
BLACK
6
CONTINUOUS
10
103.15
20
-119.7
11
102.25
21
-119.7
0
LINE
8
BLACK
6
CONTINUOUS
10
102.25
20
-119.7
11
102.25
21
-118.5
0
LINE
8
BLACK
6
CONTINUOUS
10
102.25
20
-118.5
11
103.15
21
-118.5
0
LINE
8
BLACK
6
CONTINUOUS
10
103.15
20
-118.5
11
103.15
21
-118.9
0
LINE
8
BLACK
6
CONTINUOUS
10
101.639
20
-131.718
11
101.761
21
-131.789
0
LINE
8
BLACK
6
CONTINUOUS
10
101.761
20
-131.789
11
101.852
21
-131.897
0
LINE
8
BLACK
6
CONTINUOUS
10
101.852
20
-131.897
11
101.9
21
-132.029
0
LINE
8
BLACK
6
CONTINUOUS
10
101.9
20
-132.029
11
101.9
21
-132.171
0
LINE
8
BLACK
6
CONTINUOUS
10
101.9
20
-132.171
11
101.852
21
-132.303
0
LINE
8
BLACK
6
CONTINUOUS
10
101.852
20
-132.303
11
101.761
21
-132.411
0
LINE
8
BLACK
6
CONTINUOUS
10
101.761
20
-132.411
11
101.639
21
-132.482
0
LINE
8
BLACK
6
CONTINUOUS
10
101.639
20
-132.482
11
101.5
21
-132.506
0
LINE
8
BLACK
6
CONTINUOUS
10
101.5
20
-132.506
11
101.361
21
-132.482
0
LINE
8
BLACK
6
CONTINUOUS
10
101.361
20
-132.482
11
101.239
21
-132.411
0
LINE
8
BLACK
6
CONTINUOUS
10
101.239
20
-132.411
11
101.148
21
-132.303
0
LINE
8
BLACK
6
CONTINUOUS
10
101.148
20
-132.303
11
101.1
21
-132.171
0
LINE
8
BLACK
6
CONTINUOUS
10
101.1
20
-132.171
11
101.1
21
-132.029
0
LINE
8
BLACK
6
CONTINUOUS
10
101.1
20
-132.029
11
101.148
21
-131.897
0
LINE
8
BLACK
6
CONTINUOUS
10
101.148
20
-131.897
11
101.239
21
-131.789
0
LINE
8
BLACK
6
CONTINUOUS
10
101.239
20
-131.789
11
101.361
21
-131.718
0
LINE
8
BLACK
6
CONTINUOUS
10
101.361
20
-131.718
11
101.5
21
-131.694
0
LINE
8
BLACK
6
CONTINUOUS
10
101.5
20
-131.694
11
101.639
21
-131.718
0
LINE
8
BLACK
6
CONTINUOUS
10
112.213
20
-125.448
11
112.232
21
-125.453
0
LINE
8
BLACK
6
CONTINUOUS
10
112.232
20
-125.453
11
112.252
21
-125.457
0
LINE
8
BLACK
6
CONTINUOUS
10
112.252
20
-125.457
11
112.258
21
-125.46
0
LINE
8
BLACK
6
CONTINUOUS
10
112.258
20
-125.46
11
112.264
21
-125.462
0
LINE
8
BLACK
6
CONTINUOUS
10
112.264
20
-125.462
11
112.281
21
-125.473
0
LINE
8
BLACK
6
CONTINUOUS
10
112.281
20
-125.473
11
112.298
21
-125.483
0
LINE
8
BLACK
6
CONTINUOUS
10
112.298
20
-125.483
11
112.311
21
-125.499
0
LINE
8
BLACK
6
CONTINUOUS
10
112.311
20
-125.499
11
115.962
21
-129.15
0
LINE
8
BLACK
6
CONTINUOUS
10
115.962
20
-129.15
11
123.373
21
-129.15
0
LINE
8
BLACK
6
CONTINUOUS
10
123.373
20
-129.15
11
123.393
21
-129.148
0
LINE
8
BLACK
6
CONTINUOUS
10
123.393
20
-129.148
11
123.412
21
-129.153
0
LINE
8
BLACK
6
CONTINUOUS
10
123.412
20
-129.153
11
123.432
21
-129.157
0
LINE
8
BLACK
6
CONTINUOUS
10
123.432
20
-129.157
11
123.438
21
-129.16
0
LINE
8
BLACK
6
CONTINUOUS
10
123.438
20
-129.16
11
123.444
21
-129.162
0
LINE
8
BLACK
6
CONTINUOUS
10
123.444
20
-129.162
11
123.461
21
-129.173
0
LINE
8
BLACK
6
CONTINUOUS
10
123.461
20
-129.173
11
123.478
21
-129.183
0
LINE
8
BLACK
6
CONTINUOUS
10
123.478
20
-129.183
11
123.491
21
-129.199
0
LINE
8
BLACK
6
CONTINUOUS
10
123.491
20
-129.199
11
124.892
21
-130.6
0
LINE
8
BLACK
6
CONTINUOUS
10
124.892
20
-130.6
11
125.085
21
-130.489
0
LINE
8
BLACK
6
CONTINUOUS
10
125.085
20
-130.489
11
125.306
21
-130.45
0
LINE
8
BLACK
6
CONTINUOUS
10
125.306
20
-130.45
11
125.454
21
-130.45
0
LINE
8
BLACK
6
CONTINUOUS
10
125.454
20
-130.45
11
125.675
21
-130.489
0
LINE
8
BLACK
6
CONTINUOUS
10
125.675
20
-130.489
11
125.935
21
-130.639
0
LINE
8
BLACK
6
CONTINUOUS
10
125.935
20
-130.639
11
126.127
21
-130.868
0
LINE
8
BLACK
6
CONTINUOUS
10
126.127
20
-130.868
11
126.23
21
-131.15
0
LINE
8
BLACK
6
CONTINUOUS
10
126.23
20
-131.15
11
126.23
21
-131.45
0
LINE
8
BLACK
6
CONTINUOUS
10
126.23
20
-131.45
11
126.127
21
-131.732
0
LINE
8
BLACK
6
CONTINUOUS
10
126.127
20
-131.732
11
125.935
21
-131.961
0
LINE
8
BLACK
6
CONTINUOUS
10
125.935
20
-131.961
11
125.675
21
-132.111
0
LINE
8
BLACK
6
CONTINUOUS
10
125.675
20
-132.111
11
125.454
21
-132.15
0
LINE
8
BLACK
6
CONTINUOUS
10
125.454
20
-132.15
11
125.306
21
-132.15
0
LINE
8
BLACK
6
CONTINUOUS
10
125.306
20
-132.15
11
125.085
21
-132.111
0
LINE
8
BLACK
6
CONTINUOUS
10
125.085
20
-132.111
11
124.825
21
-131.961
0
LINE
8
BLACK
6
CONTINUOUS
10
124.825
20
-131.961
11
124.633
21
-131.732
0
LINE
8
BLACK
6
CONTINUOUS
10
124.633
20
-131.732
11
124.53
21
-131.45
0
LINE
8
BLACK
6
CONTINUOUS
10
124.53
20
-131.45
11
124.53
21
-131.15
0
LINE
8
BLACK
6
CONTINUOUS
10
124.53
20
-131.15
11
124.633
21
-130.868
0
LINE
8
BLACK
6
CONTINUOUS
10
124.633
20
-130.868
11
124.68
21
-130.812
0
LINE
8
BLACK
6
CONTINUOUS
10
124.68
20
-130.812
11
123.318
21
-129.45
0
LINE
8
BLACK
6
CONTINUOUS
10
123.318
20
-129.45
11
115.907
21
-129.45
0
LINE
8
BLACK
6
CONTINUOUS
10
115.907
20
-129.45
11
115.887
21
-129.452
0
LINE
8
BLACK
6
CONTINUOUS
10
115.887
20
-129.452
11
115.868
21
-129.447
0
LINE
8
BLACK
6
CONTINUOUS
10
115.868
20
-129.447
11
115.848
21
-129.443
0
LINE
8
BLACK
6
CONTINUOUS
10
115.848
20
-129.443
11
115.842
21
-129.44
0
LINE
8
BLACK
6
CONTINUOUS
10
115.842
20
-129.44
11
115.836
21
-129.438
0
LINE
8
BLACK
6
CONTINUOUS
10
115.836
20
-129.438
11
115.819
21
-129.427
0
LINE
8
BLACK
6
CONTINUOUS
10
115.819
20
-129.427
11
115.802
21
-129.417
0
LINE
8
BLACK
6
CONTINUOUS
10
115.802
20
-129.417
11
115.789
21
-129.401
0
LINE
8
BLACK
6
CONTINUOUS
10
115.789
20
-129.401
11
112.138
21
-125.75
0
LINE
8
BLACK
6
CONTINUOUS
10
112.138
20
-125.75
11
109.871
21
-125.75
0
LINE
8
BLACK
6
CONTINUOUS
10
109.871
20
-125.75
11
109.852
21
-125.803
0
LINE
8
BLACK
6
CONTINUOUS
10
109.852
20
-125.803
11
109.761
21
-125.911
0
LINE
8
BLACK
6
CONTINUOUS
10
109.761
20
-125.911
11
109.639
21
-125.982
0
LINE
8
BLACK
6
CONTINUOUS
10
109.639
20
-125.982
11
109.5
21
-126.006
0
LINE
8
BLACK
6
CONTINUOUS
10
109.5
20
-126.006
11
109.361
21
-125.982
0
LINE
8
BLACK
6
CONTINUOUS
10
109.361
20
-125.982
11
109.239
21
-125.911
0
LINE
8
BLACK
6
CONTINUOUS
10
109.239
20
-125.911
11
109.148
21
-125.803
0
LINE
8
BLACK
6
CONTINUOUS
10
109.148
20
-125.803
11
109.1
21
-125.671
0
LINE
8
BLACK
6
CONTINUOUS
10
109.1
20
-125.671
11
109.1
21
-125.529
0
LINE
8
BLACK
6
CONTINUOUS
10
109.1
20
-125.529
11
109.148
21
-125.397
0
LINE
8
BLACK
6
CONTINUOUS
10
109.148
20
-125.397
11
109.239
21
-125.289
0
LINE
8
BLACK
6
CONTINUOUS
10
109.239
20
-125.289
11
109.361
21
-125.218
0
LINE
8
BLACK
6
CONTINUOUS
10
109.361
20
-125.218
11
109.5
21
-125.194
0
LINE
8
BLACK
6
CONTINUOUS
10
109.5
20
-125.194
11
109.639
21
-125.218
0
LINE
8
BLACK
6
CONTINUOUS
10
109.639
20
-125.218
11
109.761
21
-125.289
0
LINE
8
BLACK
6
CONTINUOUS
10
109.761
20
-125.289
11
109.852
21
-125.397
0
LINE
8
BLACK
6
CONTINUOUS
10
109.852
20
-125.397
11
109.871
21
-125.45
0
LINE
8
BLACK
6
CONTINUOUS
10
109.871
20
-125.45
11
112.193
21
-125.45
0
LINE
8
BLACK
6
CONTINUOUS
10
112.193
20
-125.45
11
112.213
21
-125.448
0
LINE
8
BLACK
6
CONTINUOUS
10
128.215
20
-130.489
11
128.475
21
-130.639
0
LINE
8
BLACK
6
CONTINUOUS
10
128.475
20
-130.639
11
128.667
21
-130.868
0
LINE
8
BLACK
6
CONTINUOUS
10
128.667
20
-130.868
11
128.77
21
-131.15
0
LINE
8
BLACK
6
CONTINUOUS
10
128.77
20
-131.15
11
128.77
21
-131.45
0
LINE
8
BLACK
6
CONTINUOUS
10
128.77
20
-131.45
11
128.667
21
-131.732
0
LINE
8
BLACK
6
CONTINUOUS
10
128.667
20
-131.732
11
128.475
21
-131.961
0
LINE
8
BLACK
6
CONTINUOUS
10
128.475
20
-131.961
11
128.215
21
-132.111
0
LINE
8
BLACK
6
CONTINUOUS
10
128.215
20
-132.111
11
127.994
21
-132.15
0
LINE
8
BLACK
6
CONTINUOUS
10
127.994
20
-132.15
11
127.846
21
-132.15
0
LINE
8
BLACK
6
CONTINUOUS
10
127.846
20
-132.15
11
127.625
21
-132.111
0
LINE
8
BLACK
6
CONTINUOUS
10
127.625
20
-132.111
11
127.365
21
-131.961
0
LINE
8
BLACK
6
CONTINUOUS
10
127.365
20
-131.961
11
127.173
21
-131.732
0
LINE
8
BLACK
6
CONTINUOUS
10
127.173
20
-131.732
11
127.07
21
-131.45
0
LINE
8
BLACK
6
CONTINUOUS
10
127.07
20
-131.45
11
127.07
21
-131.15
0
LINE
8
BLACK
6
CONTINUOUS
10
127.07
20
-131.15
11
127.173
21
-130.868
0
LINE
8
BLACK
6
CONTINUOUS
10
127.173
20
-130.868
11
127.365
21
-130.639
0
LINE
8
BLACK
6
CONTINUOUS
10
127.365
20
-130.639
11
127.625
21
-130.489
0
LINE
8
BLACK
6
CONTINUOUS
10
127.625
20
-130.489
11
127.846
21
-130.45
0
LINE
8
BLACK
6
CONTINUOUS
10
127.846
20
-130.45
11
127.994
21
-130.45
0
LINE
8
BLACK
6
CONTINUOUS
10
127.994
20
-130.45
11
128.215
21
-130.489
0
LINE
8
BLACK
6
CONTINUOUS
10
101.639
20
-110.118
11
101.761
21
-110.189
0
LINE
8
BLACK
6
CONTINUOUS
10
101.761
20
-110.189
11
101.852
21
-110.297
0
LINE
8
BLACK
6
CONTINUOUS
10
101.852
20
-110.297
11
101.9
21
-110.429
0
LINE
8
BLACK
6
CONTINUOUS
10
101.9
20
-110.429
11
101.9
21
-110.571
0
LINE
8
BLACK
6
CONTINUOUS
10
101.9
20
-110.571
11
101.869
21
-110.657
0
LINE
8
BLACK
6
CONTINUOUS
10
101.869
20
-110.657
11
102.015
21
-110.803
0
LINE
8
BLACK
6
CONTINUOUS
10
102.015
20
-110.803
11
102.015
21
-110.803
0
LINE
8
BLACK
6
CONTINUOUS
10
102.015
20
-110.803
11
102.301
21
-111.089
0
LINE
8
BLACK
6
CONTINUOUS
10
102.301
20
-111.089
11
102.317
21
-111.102
0
LINE
8
BLACK
6
CONTINUOUS
10
102.317
20
-111.102
11
102.327
21
-111.119
0
LINE
8
BLACK
6
CONTINUOUS
10
102.327
20
-111.119
11
102.338
21
-111.136
0
LINE
8
BLACK
6
CONTINUOUS
10
102.338
20
-111.136
11
102.34
21
-111.142
0
LINE
8
BLACK
6
CONTINUOUS
10
102.34
20
-111.142
11
102.343
21
-111.148
0
LINE
8
BLACK
6
CONTINUOUS
10
102.343
20
-111.148
11
102.347
21
-111.168
0
LINE
8
BLACK
6
CONTINUOUS
10
102.347
20
-111.168
11
102.352
21
-111.187
0
LINE
8
BLACK
6
CONTINUOUS
10
102.352
20
-111.187
11
102.35
21
-111.207
0
LINE
8
BLACK
6
CONTINUOUS
10
102.35
20
-111.207
11
102.35
21
-112.838
0
LINE
8
BLACK
6
CONTINUOUS
10
102.35
20
-112.838
11
104.462
21
-114.95
0
LINE
8
BLACK
6
CONTINUOUS
10
104.462
20
-114.95
11
111.793
21
-114.95
0
LINE
8
BLACK
6
CONTINUOUS
10
111.793
20
-114.95
11
111.813
21
-114.948
0
LINE
8
BLACK
6
CONTINUOUS
10
111.813
20
-114.948
11
111.832
21
-114.953
0
LINE
8
BLACK
6
CONTINUOUS
10
111.832
20
-114.953
11
111.852
21
-114.957
0
LINE
8
BLACK
6
CONTINUOUS
10
111.852
20
-114.957
11
111.858
21
-114.96
0
LINE
8
BLACK
6
CONTINUOUS
10
111.858
20
-114.96
11
111.864
21
-114.962
0
LINE
8
BLACK
6
CONTINUOUS
10
111.864
20
-114.962
11
111.881
21
-114.973
0
LINE
8
BLACK
6
CONTINUOUS
10
111.881
20
-114.973
11
111.898
21
-114.983
0
LINE
8
BLACK
6
CONTINUOUS
10
111.898
20
-114.983
11
111.911
21
-114.999
0
LINE
8
BLACK
6
CONTINUOUS
10
111.911
20
-114.999
11
112.501
21
-115.589
0
LINE
8
BLACK
6
CONTINUOUS
10
112.501
20
-115.589
11
112.517
21
-115.602
0
LINE
8
BLACK
6
CONTINUOUS
10
112.517
20
-115.602
11
112.527
21
-115.619
0
LINE
8
BLACK
6
CONTINUOUS
10
112.527
20
-115.619
11
112.538
21
-115.636
0
LINE
8
BLACK
6
CONTINUOUS
10
112.538
20
-115.636
11
112.54
21
-115.642
0
LINE
8
BLACK
6
CONTINUOUS
10
112.54
20
-115.642
11
112.543
21
-115.648
0
LINE
8
BLACK
6
CONTINUOUS
10
112.543
20
-115.648
11
112.547
21
-115.668
0
LINE
8
BLACK
6
CONTINUOUS
10
112.547
20
-115.668
11
112.552
21
-115.687
0
LINE
8
BLACK
6
CONTINUOUS
10
112.552
20
-115.687
11
112.55
21
-115.707
0
LINE
8
BLACK
6
CONTINUOUS
10
112.55
20
-115.707
11
112.55
21
-117.986
0
LINE
8
BLACK
6
CONTINUOUS
10
112.55
20
-117.986
11
122.514
21
-127.95
0
LINE
8
BLACK
6
CONTINUOUS
10
122.514
20
-127.95
11
123.645
21
-127.95
0
LINE
8
BLACK
6
CONTINUOUS
10
123.645
20
-127.95
11
123.665
21
-127.948
0
LINE
8
BLACK
6
CONTINUOUS
10
123.665
20
-127.948
11
123.684
21
-127.953
0
LINE
8
BLACK
6
CONTINUOUS
10
123.684
20
-127.953
11
123.704
21
-127.957
0
LINE
8
BLACK
6
CONTINUOUS
10
123.704
20
-127.957
11
123.709
21
-127.96
0
LINE
8
BLACK
6
CONTINUOUS
10
123.709
20
-127.96
11
123.716
21
-127.962
0
LINE
8
BLACK
6
CONTINUOUS
10
123.716
20
-127.962
11
123.732
21
-127.973
0
LINE
8
BLACK
6
CONTINUOUS
10
123.732
20
-127.973
11
123.749
21
-127.983
0
LINE
8
BLACK
6
CONTINUOUS
10
123.749
20
-127.983
11
123.762
21
-127.999
0
LINE
8
BLACK
6
CONTINUOUS
10
123.762
20
-127.999
11
124.714
21
-128.95
0
LINE
8
BLACK
6
CONTINUOUS
10
124.714
20
-128.95
11
128.253
21
-128.95
0
LINE
8
BLACK
6
CONTINUOUS
10
128.253
20
-128.95
11
128.273
21
-128.948
0
LINE
8
BLACK
6
CONTINUOUS
10
128.273
20
-128.948
11
128.293
21
-128.953
0
LINE
8
BLACK
6
CONTINUOUS
10
128.293
20
-128.953
11
128.312
21
-128.957
0
LINE
8
BLACK
6
CONTINUOUS
10
128.312
20
-128.957
11
128.318
21
-128.96
0
LINE
8
BLACK
6
CONTINUOUS
10
128.318
20
-128.96
11
128.324
21
-128.962
0
LINE
8
BLACK
6
CONTINUOUS
10
128.324
20
-128.962
11
128.341
21
-128.973
0
LINE
8
BLACK
6
CONTINUOUS
10
128.341
20
-128.973
11
128.358
21
-128.983
0
LINE
8
BLACK
6
CONTINUOUS
10
128.358
20
-128.983
11
128.371
21
-128.999
0
LINE
8
BLACK
6
CONTINUOUS
10
128.371
20
-128.999
11
129.972
21
-130.6
0
LINE
8
BLACK
6
CONTINUOUS
10
129.972
20
-130.6
11
130.165
21
-130.489
0
LINE
8
BLACK
6
CONTINUOUS
10
130.165
20
-130.489
11
130.386
21
-130.45
0
LINE
8
BLACK
6
CONTINUOUS
10
130.386
20
-130.45
11
130.534
21
-130.45
0
LINE
8
BLACK
6
CONTINUOUS
10
130.534
20
-130.45
11
130.755
21
-130.489
0
LINE
8
BLACK
6
CONTINUOUS
10
130.755
20
-130.489
11
131.015
21
-130.639
0
LINE
8
BLACK
6
CONTINUOUS
10
131.015
20
-130.639
11
131.207
21
-130.868
0
LINE
8
BLACK
6
CONTINUOUS
10
131.207
20
-130.868
11
131.31
21
-131.15
0
LINE
8
BLACK
6
CONTINUOUS
10
131.31
20
-131.15
11
131.31
21
-131.45
0
LINE
8
BLACK
6
CONTINUOUS
10
131.31
20
-131.45
11
131.207
21
-131.732
0
LINE
8
BLACK
6
CONTINUOUS
10
131.207
20
-131.732
11
131.015
21
-131.961
0
LINE
8
BLACK
6
CONTINUOUS
10
131.015
20
-131.961
11
130.755
21
-132.111
0
LINE
8
BLACK
6
CONTINUOUS
10
130.755
20
-132.111
11
130.534
21
-132.15
0
LINE
8
BLACK
6
CONTINUOUS
10
130.534
20
-132.15
11
130.386
21
-132.15
0
LINE
8
BLACK
6
CONTINUOUS
10
130.386
20
-132.15
11
130.165
21
-132.111
0
LINE
8
BLACK
6
CONTINUOUS
10
130.165
20
-132.111
11
129.905
21
-131.961
0
LINE
8
BLACK
6
CONTINUOUS
10
129.905
20
-131.961
11
129.713
21
-131.732
0
LINE
8
BLACK
6
CONTINUOUS
10
129.713
20
-131.732
11
129.61
21
-131.45
0
LINE
8
BLACK
6
CONTINUOUS
10
129.61
20
-131.45
11
129.61
21
-131.15
0
LINE
8
BLACK
6
CONTINUOUS
10
129.61
20
-131.15
11
129.713
21
-130.868
0
LINE
8
BLACK
6
CONTINUOUS
10
129.713
20
-130.868
11
129.76
21
-130.812
0
LINE
8
BLACK
6
CONTINUOUS
10
129.76
20
-130.812
11
128.198
21
-129.25
0
LINE
8
BLACK
6
CONTINUOUS
10
128.198
20
-129.25
11
124.658
21
-129.25
0
LINE
8
BLACK
6
CONTINUOUS
10
124.658
20
-129.25
11
124.638
21
-129.252
0
LINE
8
BLACK
6
CONTINUOUS
10
124.638
20
-129.252
11
124.619
21
-129.247
0
LINE
8
BLACK
6
CONTINUOUS
10
124.619
20
-129.247
11
124.599
21
-129.243
0
LINE
8
BLACK
6
CONTINUOUS
10
124.599
20
-129.243
11
124.594
21
-129.24
0
LINE
8
BLACK
6
CONTINUOUS
10
124.594
20
-129.24
11
124.587
21
-129.238
0
LINE
8
BLACK
6
CONTINUOUS
10
124.587
20
-129.238
11
124.571
21
-129.227
0
LINE
8
BLACK
6
CONTINUOUS
10
124.571
20
-129.227
11
124.554
21
-129.217
0
LINE
8
BLACK
6
CONTINUOUS
10
124.554
20
-129.217
11
124.541
21
-129.201
0
LINE
8
BLACK
6
CONTINUOUS
10
124.541
20
-129.201
11
123.589
21
-128.25
0
LINE
8
BLACK
6
CONTINUOUS
10
123.589
20
-128.25
11
122.458
21
-128.25
0
LINE
8
BLACK
6
CONTINUOUS
10
122.458
20
-128.25
11
122.438
21
-128.252
0
LINE
8
BLACK
6
CONTINUOUS
10
122.438
20
-128.252
11
122.419
21
-128.247
0
LINE
8
BLACK
6
CONTINUOUS
10
122.419
20
-128.247
11
122.399
21
-128.243
0
LINE
8
BLACK
6
CONTINUOUS
10
122.399
20
-128.243
11
122.394
21
-128.24
0
LINE
8
BLACK
6
CONTINUOUS
10
122.394
20
-128.24
11
122.387
21
-128.238
0
LINE
8
BLACK
6
CONTINUOUS
10
122.387
20
-128.238
11
122.371
21
-128.227
0
LINE
8
BLACK
6
CONTINUOUS
10
122.371
20
-128.227
11
122.354
21
-128.217
0
LINE
8
BLACK
6
CONTINUOUS
10
122.354
20
-128.217
11
122.341
21
-128.201
0
LINE
8
BLACK
6
CONTINUOUS
10
122.341
20
-128.201
11
112.299
21
-118.159
0
LINE
8
BLACK
6
CONTINUOUS
10
112.299
20
-118.159
11
112.283
21
-118.146
0
LINE
8
BLACK
6
CONTINUOUS
10
112.283
20
-118.146
11
112.273
21
-118.129
0
LINE
8
BLACK
6
CONTINUOUS
10
112.273
20
-118.129
11
112.262
21
-118.113
0
LINE
8
BLACK
6
CONTINUOUS
10
112.262
20
-118.113
11
112.26
21
-118.106
0
LINE
8
BLACK
6
CONTINUOUS
10
112.26
20
-118.106
11
112.257
21
-118.101
0
LINE
8
BLACK
6
CONTINUOUS
10
112.257
20
-118.101
11
112.253
21
-118.081
0
LINE
8
BLACK
6
CONTINUOUS
10
112.253
20
-118.081
11
112.248
21
-118.062
0
LINE
8
BLACK
6
CONTINUOUS
10
112.248
20
-118.062
11
112.25
21
-118.042
0
LINE
8
BLACK
6
CONTINUOUS
10
112.25
20
-118.042
11
112.25
21
-115.762
0
LINE
8
BLACK
6
CONTINUOUS
10
112.25
20
-115.762
11
111.738
21
-115.25
0
LINE
8
BLACK
6
CONTINUOUS
10
111.738
20
-115.25
11
104.407
21
-115.25
0
LINE
8
BLACK
6
CONTINUOUS
10
104.407
20
-115.25
11
104.387
21
-115.252
0
LINE
8
BLACK
6
CONTINUOUS
10
104.387
20
-115.252
11
104.368
21
-115.247
0
LINE
8
BLACK
6
CONTINUOUS
10
104.368
20
-115.247
11
104.348
21
-115.243
0
LINE
8
BLACK
6
CONTINUOUS
10
104.348
20
-115.243
11
104.342
21
-115.24
0
LINE
8
BLACK
6
CONTINUOUS
10
104.342
20
-115.24
11
104.336
21
-115.238
0
LINE
8
BLACK
6
CONTINUOUS
10
104.336
20
-115.238
11
104.319
21
-115.227
0
LINE
8
BLACK
6
CONTINUOUS
10
104.319
20
-115.227
11
104.302
21
-115.217
0
LINE
8
BLACK
6
CONTINUOUS
10
104.302
20
-115.217
11
104.289
21
-115.201
0
LINE
8
BLACK
6
CONTINUOUS
10
104.289
20
-115.201
11
102.099
21
-113.011
0
LINE
8
BLACK
6
CONTINUOUS
10
102.099
20
-113.011
11
102.083
21
-112.998
0
LINE
8
BLACK
6
CONTINUOUS
10
102.083
20
-112.998
11
102.073
21
-112.981
0
LINE
8
BLACK
6
CONTINUOUS
10
102.073
20
-112.981
11
102.062
21
-112.964
0
LINE
8
BLACK
6
CONTINUOUS
10
102.062
20
-112.964
11
102.06
21
-112.958
0
LINE
8
BLACK
6
CONTINUOUS
10
102.06
20
-112.958
11
102.057
21
-112.952
0
LINE
8
BLACK
6
CONTINUOUS
10
102.057
20
-112.952
11
102.053
21
-112.933
0
LINE
8
BLACK
6
CONTINUOUS
10
102.053
20
-112.933
11
102.048
21
-112.913
0
LINE
8
BLACK
6
CONTINUOUS
10
102.048
20
-112.913
11
102.05
21
-112.893
0
LINE
8
BLACK
6
CONTINUOUS
10
102.05
20
-112.893
11
102.05
21
-111.262
0
LINE
8
BLACK
6
CONTINUOUS
10
102.05
20
-111.262
11
101.803
21
-111.015
0
LINE
8
BLACK
6
CONTINUOUS
10
101.803
20
-111.015
11
101.803
21
-111.015
0
LINE
8
BLACK
6
CONTINUOUS
10
101.803
20
-111.015
11
101.658
21
-110.87
0
LINE
8
BLACK
6
CONTINUOUS
10
101.658
20
-110.87
11
101.639
21
-110.882
0
LINE
8
BLACK
6
CONTINUOUS
10
101.639
20
-110.882
11
101.5
21
-110.906
0
LINE
8
BLACK
6
CONTINUOUS
10
101.5
20
-110.906
11
101.361
21
-110.882
0
LINE
8
BLACK
6
CONTINUOUS
10
101.361
20
-110.882
11
101.239
21
-110.811
0
LINE
8
BLACK
6
CONTINUOUS
10
101.239
20
-110.811
11
101.148
21
-110.703
0
LINE
8
BLACK
6
CONTINUOUS
10
101.148
20
-110.703
11
101.1
21
-110.571
0
LINE
8
BLACK
6
CONTINUOUS
10
101.1
20
-110.571
11
101.1
21
-110.429
0
LINE
8
BLACK
6
CONTINUOUS
10
101.1
20
-110.429
11
101.148
21
-110.297
0
LINE
8
BLACK
6
CONTINUOUS
10
101.148
20
-110.297
11
101.239
21
-110.189
0
LINE
8
BLACK
6
CONTINUOUS
10
101.239
20
-110.189
11
101.361
21
-110.118
0
LINE
8
BLACK
6
CONTINUOUS
10
101.361
20
-110.118
11
101.5
21
-110.094
0
LINE
8
BLACK
6
CONTINUOUS
10
101.5
20
-110.094
11
101.639
21
-110.118
0
LINE
8
BLACK
6
CONTINUOUS
10
101.389
20
-106.169
11
101.511
21
-106.24
0
LINE
8
BLACK
6
CONTINUOUS
10
101.511
20
-106.24
11
101.602
21
-106.348
0
LINE
8
BLACK
6
CONTINUOUS
10
101.602
20
-106.348
11
101.65
21
-106.481
0
LINE
8
BLACK
6
CONTINUOUS
10
101.65
20
-106.481
11
101.65
21
-106.622
0
LINE
8
BLACK
6
CONTINUOUS
10
101.65
20
-106.622
11
101.619
21
-106.708
0
LINE
8
BLACK
6
CONTINUOUS
10
101.619
20
-106.708
11
102.401
21
-107.49
0
LINE
8
BLACK
6
CONTINUOUS
10
102.401
20
-107.49
11
102.417
21
-107.503
0
LINE
8
BLACK
6
CONTINUOUS
10
102.417
20
-107.503
11
102.427
21
-107.521
0
LINE
8
BLACK
6
CONTINUOUS
10
102.427
20
-107.521
11
102.438
21
-107.537
0
LINE
8
BLACK
6
CONTINUOUS
10
102.438
20
-107.537
11
102.44
21
-107.543
0
LINE
8
BLACK
6
CONTINUOUS
10
102.44
20
-107.543
11
102.443
21
-107.549
0
LINE
8
BLACK
6
CONTINUOUS
10
102.443
20
-107.549
11
102.447
21
-107.569
0
LINE
8
BLACK
6
CONTINUOUS
10
102.447
20
-107.569
11
102.452
21
-107.588
0
LINE
8
BLACK
6
CONTINUOUS
10
102.452
20
-107.588
11
102.45
21
-107.608
0
LINE
8
BLACK
6
CONTINUOUS
10
102.45
20
-107.608
11
102.45
21
-108.638
0
LINE
8
BLACK
6
CONTINUOUS
10
102.45
20
-108.638
11
104.462
21
-110.65
0
LINE
8
BLACK
6
CONTINUOUS
10
104.462
20
-110.65
11
112.142
21
-110.65
0
LINE
8
BLACK
6
CONTINUOUS
10
112.142
20
-110.65
11
112.162
21
-110.648
0
LINE
8
BLACK
6
CONTINUOUS
10
112.162
20
-110.648
11
112.181
21
-110.653
0
LINE
8
BLACK
6
CONTINUOUS
10
112.181
20
-110.653
11
112.201
21
-110.657
0
LINE
8
BLACK
6
CONTINUOUS
10
112.201
20
-110.657
11
112.206
21
-110.66
0
LINE
8
BLACK
6
CONTINUOUS
10
112.206
20
-110.66
11
112.213
21
-110.662
0
LINE
8
BLACK
6
CONTINUOUS
10
112.213
20
-110.662
11
112.229
21
-110.673
0
LINE
8
BLACK
6
CONTINUOUS
10
112.229
20
-110.673
11
112.246
21
-110.683
0
LINE
8
BLACK
6
CONTINUOUS
10
112.246
20
-110.683
11
112.259
21
-110.699
0
LINE
8
BLACK
6
CONTINUOUS
10
112.259
20
-110.699
11
113.101
21
-111.541
0
LINE
8
BLACK
6
CONTINUOUS
10
113.101
20
-111.541
11
113.117
21
-111.554
0
LINE
8
BLACK
6
CONTINUOUS
10
113.117
20
-111.554
11
113.127
21
-111.571
0
LINE
8
BLACK
6
CONTINUOUS
10
113.127
20
-111.571
11
113.138
21
-111.587
0
LINE
8
BLACK
6
CONTINUOUS
10
113.138
20
-111.587
11
113.14
21
-111.594
0
LINE
8
BLACK
6
CONTINUOUS
10
113.14
20
-111.594
11
113.143
21
-111.599
0
LINE
8
BLACK
6
CONTINUOUS
10
113.143
20
-111.599
11
113.147
21
-111.619
0
LINE
8
BLACK
6
CONTINUOUS
10
113.147
20
-111.619
11
113.152
21
-111.638
0
LINE
8
BLACK
6
CONTINUOUS
10
113.152
20
-111.638
11
113.15
21
-111.658
0
LINE
8
BLACK
6
CONTINUOUS
10
113.15
20
-111.658
11
113.15
21
-117.738
0
LINE
8
BLACK
6
CONTINUOUS
10
113.15
20
-117.738
11
122.662
21
-127.25
0
LINE
8
BLACK
6
CONTINUOUS
10
122.662
20
-127.25
11
123.793
21
-127.25
0
LINE
8
BLACK
6
CONTINUOUS
10
123.793
20
-127.25
11
123.813
21
-127.248
0
LINE
8
BLACK
6
CONTINUOUS
10
123.813
20
-127.248
11
123.832
21
-127.253
0
LINE
8
BLACK
6
CONTINUOUS
10
123.832
20
-127.253
11
123.852
21
-127.257
0
LINE
8
BLACK
6
CONTINUOUS
10
123.852
20
-127.257
11
123.858
21
-127.26
0
LINE
8
BLACK
6
CONTINUOUS
10
123.858
20
-127.26
11
123.864
21
-127.262
0
LINE
8
BLACK
6
CONTINUOUS
10
123.864
20
-127.262
11
123.881
21
-127.273
0
LINE
8
BLACK
6
CONTINUOUS
10
123.881
20
-127.273
11
123.898
21
-127.283
0
LINE
8
BLACK
6
CONTINUOUS
10
123.898
20
-127.283
11
123.911
21
-127.299
0
LINE
8
BLACK
6
CONTINUOUS
10
123.911
20
-127.299
11
124.962
21
-128.35
0
LINE
8
BLACK
6
CONTINUOUS
10
124.962
20
-128.35
11
130.193
21
-128.35
0
LINE
8
BLACK
6
CONTINUOUS
10
130.193
20
-128.35
11
130.213
21
-128.348
0
LINE
8
BLACK
6
CONTINUOUS
10
130.213
20
-128.348
11
130.232
21
-128.353
0
LINE
8
BLACK
6
CONTINUOUS
10
130.232
20
-128.353
11
130.252
21
-128.357
0
LINE
8
BLACK
6
CONTINUOUS
10
130.252
20
-128.357
11
130.258
21
-128.36
0
LINE
8
BLACK
6
CONTINUOUS
10
130.258
20
-128.36
11
130.264
21
-128.362
0
LINE
8
BLACK
6
CONTINUOUS
10
130.264
20
-128.362
11
130.281
21
-128.373
0
LINE
8
BLACK
6
CONTINUOUS
10
130.281
20
-128.373
11
130.298
21
-128.383
0
LINE
8
BLACK
6
CONTINUOUS
10
130.298
20
-128.383
11
130.311
21
-128.399
0
LINE
8
BLACK
6
CONTINUOUS
10
130.311
20
-128.399
11
132.512
21
-130.6
0
LINE
8
BLACK
6
CONTINUOUS
10
132.512
20
-130.6
11
132.705
21
-130.489
0
LINE
8
BLACK
6
CONTINUOUS
10
132.705
20
-130.489
11
132.926
21
-130.45
0
LINE
8
BLACK
6
CONTINUOUS
10
132.926
20
-130.45
11
133.074
21
-130.45
0
LINE
8
BLACK
6
CONTINUOUS
10
133.074
20
-130.45
11
133.295
21
-130.489
0
LINE
8
BLACK
6
CONTINUOUS
10
133.295
20
-130.489
11
133.555
21
-130.639
0
LINE
8
BLACK
6
CONTINUOUS
10
133.555
20
-130.639
11
133.747
21
-130.868
0
LINE
8
BLACK
6
CONTINUOUS
10
133.747
20
-130.868
11
133.85
21
-131.15
0
LINE
8
BLACK
6
CONTINUOUS
10
133.85
20
-131.15
11
133.85
21
-131.45
0
LINE
8
BLACK
6
CONTINUOUS
10
133.85
20
-131.45
11
133.747
21
-131.732
0
LINE
8
BLACK
6
CONTINUOUS
10
133.747
20
-131.732
11
133.555
21
-131.961
0
LINE
8
BLACK
6
CONTINUOUS
10
133.555
20
-131.961
11
133.295
21
-132.111
0
LINE
8
BLACK
6
CONTINUOUS
10
133.295
20
-132.111
11
133.074
21
-132.15
0
LINE
8
BLACK
6
CONTINUOUS
10
133.074
20
-132.15
11
132.926
21
-132.15
0
LINE
8
BLACK
6
CONTINUOUS
10
132.926
20
-132.15
11
132.705
21
-132.111
0
LINE
8
BLACK
6
CONTINUOUS
10
132.705
20
-132.111
11
132.445
21
-131.961
0
LINE
8
BLACK
6
CONTINUOUS
10
132.445
20
-131.961
11
132.253
21
-131.732
0
LINE
8
BLACK
6
CONTINUOUS
10
132.253
20
-131.732
11
132.15
21
-131.45
0
LINE
8
BLACK
6
CONTINUOUS
10
132.15
20
-131.45
11
132.15
21
-131.15
0
LINE
8
BLACK
6
CONTINUOUS
10
132.15
20
-131.15
11
132.253
21
-130.868
0
LINE
8
BLACK
6
CONTINUOUS
10
132.253
20
-130.868
11
132.3
21
-130.812
0
LINE
8
BLACK
6
CONTINUOUS
10
132.3
20
-130.812
11
130.138
21
-128.65
0
LINE
8
BLACK
6
CONTINUOUS
10
130.138
20
-128.65
11
124.907
21
-128.65
0
LINE
8
BLACK
6
CONTINUOUS
10
124.907
20
-128.65
11
124.887
21
-128.652
0
LINE
8
BLACK
6
CONTINUOUS
10
124.887
20
-128.652
11
124.868
21
-128.647
0
LINE
8
BLACK
6
CONTINUOUS
10
124.868
20
-128.647
11
124.848
21
-128.643
0
LINE
8
BLACK
6
CONTINUOUS
10
124.848
20
-128.643
11
124.842
21
-128.64
0
LINE
8
BLACK
6
CONTINUOUS
10
124.842
20
-128.64
11
124.836
21
-128.638
0
LINE
8
BLACK
6
CONTINUOUS
10
124.836
20
-128.638
11
124.819
21
-128.627
0
LINE
8
BLACK
6
CONTINUOUS
10
124.819
20
-128.627
11
124.802
21
-128.617
0
LINE
8
BLACK
6
CONTINUOUS
10
124.802
20
-128.617
11
124.789
21
-128.601
0
LINE
8
BLACK
6
CONTINUOUS
10
124.789
20
-128.601
11
123.738
21
-127.55
0
LINE
8
BLACK
6
CONTINUOUS
10
123.738
20
-127.55
11
122.607
21
-127.55
0
LINE
8
BLACK
6
CONTINUOUS
10
122.607
20
-127.55
11
122.587
21
-127.552
0
LINE
8
BLACK
6
CONTINUOUS
10
122.587
20
-127.552
11
122.568
21
-127.547
0
LINE
8
BLACK
6
CONTINUOUS
10
122.568
20
-127.547
11
122.548
21
-127.543
0
LINE
8
BLACK
6
CONTINUOUS
10
122.548
20
-127.543
11
122.542
21
-127.54
0
LINE
8
BLACK
6
CONTINUOUS
10
122.542
20
-127.54
11
122.536
21
-127.538
0
LINE
8
BLACK
6
CONTINUOUS
10
122.536
20
-127.538
11
122.519
21
-127.527
0
LINE
8
BLACK
6
CONTINUOUS
10
122.519
20
-127.527
11
122.502
21
-127.517
0
LINE
8
BLACK
6
CONTINUOUS
10
122.502
20
-127.517
11
122.489
21
-127.501
0
LINE
8
BLACK
6
CONTINUOUS
10
122.489
20
-127.501
11
112.899
21
-117.911
0
LINE
8
BLACK
6
CONTINUOUS
10
112.899
20
-117.911
11
112.883
21
-117.898
0
LINE
8
BLACK
6
CONTINUOUS
10
112.883
20
-117.898
11
112.873
21
-117.881
0
LINE
8
BLACK
6
CONTINUOUS
10
112.873
20
-117.881
11
112.862
21
-117.864
0
LINE
8
BLACK
6
CONTINUOUS
10
112.862
20
-117.864
11
112.86
21
-117.858
0
LINE
8
BLACK
6
CONTINUOUS
10
112.86
20
-117.858
11
112.857
21
-117.852
0
LINE
8
BLACK
6
CONTINUOUS
10
112.857
20
-117.852
11
112.853
21
-117.833
0
LINE
8
BLACK
6
CONTINUOUS
10
112.853
20
-117.833
11
112.848
21
-117.813
0
LINE
8
BLACK
6
CONTINUOUS
10
112.848
20
-117.813
11
112.85
21
-117.793
0
LINE
8
BLACK
6
CONTINUOUS
10
112.85
20
-117.793
11
112.85
21
-111.714
0
LINE
8
BLACK
6
CONTINUOUS
10
112.85
20
-111.714
11
112.086
21
-110.95
0
LINE
8
BLACK
6
CONTINUOUS
10
112.086
20
-110.95
11
104.407
21
-110.95
0
LINE
8
BLACK
6
CONTINUOUS
10
104.407
20
-110.95
11
104.387
21
-110.952
0
LINE
8
BLACK
6
CONTINUOUS
10
104.387
20
-110.952
11
104.368
21
-110.947
0
LINE
8
BLACK
6
CONTINUOUS
10
104.368
20
-110.947
11
104.348
21
-110.943
0
LINE
8
BLACK
6
CONTINUOUS
10
104.348
20
-110.943
11
104.342
21
-110.94
0
LINE
8
BLACK
6
CONTINUOUS
10
104.342
20
-110.94
11
104.336
21
-110.938
0
LINE
8
BLACK
6
CONTINUOUS
10
104.336
20
-110.938
11
104.319
21
-110.927
0
LINE
8
BLACK
6
CONTINUOUS
10
104.319
20
-110.927
11
104.302
21
-110.917
0
LINE
8
BLACK
6
CONTINUOUS
10
104.302
20
-110.917
11
104.289
21
-110.901
0
LINE
8
BLACK
6
CONTINUOUS
10
104.289
20
-110.901
11
102.199
21
-108.811
0
LINE
8
BLACK
6
CONTINUOUS
10
102.199
20
-108.811
11
102.183
21
-108.798
0
LINE
8
BLACK
6
CONTINUOUS
10
102.183
20
-108.798
11
102.173
21
-108.781
0
LINE
8
BLACK
6
CONTINUOUS
10
102.173
20
-108.781
11
102.162
21
-108.764
0
LINE
8
BLACK
6
CONTINUOUS
10
102.162
20
-108.764
11
102.16
21
-108.758
0
LINE
8
BLACK
6
CONTINUOUS
10
102.16
20
-108.758
11
102.157
21
-108.752
0
LINE
8
BLACK
6
CONTINUOUS
10
102.157
20
-108.752
11
102.153
21
-108.733
0
LINE
8
BLACK
6
CONTINUOUS
10
102.153
20
-108.733
11
102.148
21
-108.713
0
LINE
8
BLACK
6
CONTINUOUS
10
102.148
20
-108.713
11
102.15
21
-108.693
0
LINE
8
BLACK
6
CONTINUOUS
10
102.15
20
-108.693
11
102.15
21
-107.663
0
LINE
8
BLACK
6
CONTINUOUS
10
102.15
20
-107.663
11
101.408
21
-106.922
0
LINE
8
BLACK
6
CONTINUOUS
10
101.408
20
-106.922
11
101.389
21
-106.933
0
LINE
8
BLACK
6
CONTINUOUS
10
101.389
20
-106.933
11
101.25
21
-106.957
0
LINE
8
BLACK
6
CONTINUOUS
10
101.25
20
-106.957
11
101.111
21
-106.933
0
LINE
8
BLACK
6
CONTINUOUS
10
101.111
20
-106.933
11
100.989
21
-106.862
0
LINE
8
BLACK
6
CONTINUOUS
10
100.989
20
-106.862
11
100.898
21
-106.754
0
LINE
8
BLACK
6
CONTINUOUS
10
100.898
20
-106.754
11
100.85
21
-106.622
0
LINE
8
BLACK
6
CONTINUOUS
10
100.85
20
-106.622
11
100.85
21
-106.481
0
LINE
8
BLACK
6
CONTINUOUS
10
100.85
20
-106.481
11
100.898
21
-106.348
0
LINE
8
BLACK
6
CONTINUOUS
10
100.898
20
-106.348
11
100.989
21
-106.24
0
LINE
8
BLACK
6
CONTINUOUS
10
100.989
20
-106.24
11
101.111
21
-106.169
0
LINE
8
BLACK
6
CONTINUOUS
10
101.111
20
-106.169
11
101.25
21
-106.145
0
LINE
8
BLACK
6
CONTINUOUS
10
101.25
20
-106.145
11
101.389
21
-106.169
0
LINE
8
BLACK
6
CONTINUOUS
10
135.835
20
-130.489
11
136.095
21
-130.639
0
LINE
8
BLACK
6
CONTINUOUS
10
136.095
20
-130.639
11
136.287
21
-130.868
0
LINE
8
BLACK
6
CONTINUOUS
10
136.287
20
-130.868
11
136.39
21
-131.15
0
LINE
8
BLACK
6
CONTINUOUS
10
136.39
20
-131.15
11
136.39
21
-131.45
0
LINE
8
BLACK
6
CONTINUOUS
10
136.39
20
-131.45
11
136.287
21
-131.732
0
LINE
8
BLACK
6
CONTINUOUS
10
136.287
20
-131.732
11
136.095
21
-131.961
0
LINE
8
BLACK
6
CONTINUOUS
10
136.095
20
-131.961
11
135.835
21
-132.111
0
LINE
8
BLACK
6
CONTINUOUS
10
135.835
20
-132.111
11
135.614
21
-132.15
0
LINE
8
BLACK
6
CONTINUOUS
10
135.614
20
-132.15
11
135.466
21
-132.15
0
LINE
8
BLACK
6
CONTINUOUS
10
135.466
20
-132.15
11
135.245
21
-132.111
0
LINE
8
BLACK
6
CONTINUOUS
10
135.245
20
-132.111
11
134.985
21
-131.961
0
LINE
8
BLACK
6
CONTINUOUS
10
134.985
20
-131.961
11
134.793
21
-131.732
0
LINE
8
BLACK
6
CONTINUOUS
10
134.793
20
-131.732
11
134.69
21
-131.45
0
LINE
8
BLACK
6
CONTINUOUS
10
134.69
20
-131.45
11
134.69
21
-131.15
0
LINE
8
BLACK
6
CONTINUOUS
10
134.69
20
-131.15
11
134.793
21
-130.868
0
LINE
8
BLACK
6
CONTINUOUS
10
134.793
20
-130.868
11
134.985
21
-130.639
0
LINE
8
BLACK
6
CONTINUOUS
10
134.985
20
-130.639
11
135.245
21
-130.489
0
LINE
8
BLACK
6
CONTINUOUS
10
135.245
20
-130.489
11
135.466
21
-130.45
0
LINE
8
BLACK
6
CONTINUOUS
10
135.466
20
-130.45
11
135.614
21
-130.45
0
LINE
8
BLACK
6
CONTINUOUS
10
135.614
20
-130.45
11
135.835
21
-130.489
0
LINE
8
BLACK
6
CONTINUOUS
10
138.375
20
-130.489
11
138.635
21
-130.639
0
LINE
8
BLACK
6
CONTINUOUS
10
138.635
20
-130.639
11
138.827
21
-130.868
0
LINE
8
BLACK
6
CONTINUOUS
10
138.827
20
-130.868
11
138.93
21
-131.15
0
LINE
8
BLACK
6
CONTINUOUS
10
138.93
20
-131.15
11
138.93
21
-131.45
0
LINE
8
BLACK
6
CONTINUOUS
10
138.93
20
-131.45
11
138.827
21
-131.732
0
LINE
8
BLACK
6
CONTINUOUS
10
138.827
20
-131.732
11
138.635
21
-131.961
0
LINE
8
BLACK
6
CONTINUOUS
10
138.635
20
-131.961
11
138.375
21
-132.111
0
LINE
8
BLACK
6
CONTINUOUS
10
138.375
20
-132.111
11
138.154
21
-132.15
0
LINE
8
BLACK
6
CONTINUOUS
10
138.154
20
-132.15
11
138.006
21
-132.15
0
LINE
8
BLACK
6
CONTINUOUS
10
138.006
20
-132.15
11
137.785
21
-132.111
0
LINE
8
BLACK
6
CONTINUOUS
10
137.785
20
-132.111
11
137.525
21
-131.961
0
LINE
8
BLACK
6
CONTINUOUS
10
137.525
20
-131.961
11
137.333
21
-131.732
0
LINE
8
BLACK
6
CONTINUOUS
10
137.333
20
-131.732
11
137.23
21
-131.45
0
LINE
8
BLACK
6
CONTINUOUS
10
137.23
20
-131.45
11
137.23
21
-131.15
0
LINE
8
BLACK
6
CONTINUOUS
10
137.23
20
-131.15
11
137.333
21
-130.868
0
LINE
8
BLACK
6
CONTINUOUS
10
137.333
20
-130.868
11
137.525
21
-130.639
0
LINE
8
BLACK
6
CONTINUOUS
10
137.525
20
-130.639
11
137.785
21
-130.489
0
LINE
8
BLACK
6
CONTINUOUS
10
137.785
20
-130.489
11
138.006
21
-130.45
0
LINE
8
BLACK
6
CONTINUOUS
10
138.006
20
-130.45
11
138.154
21
-130.45
0
LINE
8
BLACK
6
CONTINUOUS
10
138.154
20
-130.45
11
138.375
21
-130.489
0
LINE
8
BLACK
6
CONTINUOUS
10
147.495
20
-127.392
11
148.105
21
-127.744
0
LINE
8
BLACK
6
CONTINUOUS
10
148.105
20
-127.744
11
148.559
21
-128.285
0
LINE
8
BLACK
6
CONTINUOUS
10
148.559
20
-128.285
11
148.8
21
-128.947
0
LINE
8
BLACK
6
CONTINUOUS
10
148.8
20
-128.947
11
148.8
21
-129.653
0
LINE
8
BLACK
6
CONTINUOUS
10
148.8
20
-129.653
11
148.559
21
-130.315
0
LINE
8
BLACK
6
CONTINUOUS
10
148.559
20
-130.315
11
148.105
21
-130.856
0
LINE
8
BLACK
6
CONTINUOUS
10
148.105
20
-130.856
11
147.495
21
-131.208
0
LINE
8
BLACK
6
CONTINUOUS
10
147.495
20
-131.208
11
146.8
21
-131.331
0
LINE
8
BLACK
6
CONTINUOUS
10
146.8
20
-131.331
11
146.105
21
-131.208
0
LINE
8
BLACK
6
CONTINUOUS
10
146.105
20
-131.208
11
145.495
21
-130.856
0
LINE
8
BLACK
6
CONTINUOUS
10
145.495
20
-130.856
11
145.041
21
-130.315
0
LINE
8
BLACK
6
CONTINUOUS
10
145.041
20
-130.315
11
144.8
21
-129.653
0
LINE
8
BLACK
6
CONTINUOUS
10
144.8
20
-129.653
11
144.8
21
-128.947
0
LINE
8
BLACK
6
CONTINUOUS
10
144.8
20
-128.947
11
145.041
21
-128.285
0
LINE
8
BLACK
6
CONTINUOUS
10
145.041
20
-128.285
11
145.495
21
-127.744
0
LINE
8
BLACK
6
CONTINUOUS
10
145.495
20
-127.744
11
146.105
21
-127.392
0
LINE
8
BLACK
6
CONTINUOUS
10
146.105
20
-127.392
11
146.8
21
-127.269
0
LINE
8
BLACK
6
CONTINUOUS
10
146.8
20
-127.269
11
147.495
21
-127.392
0
LINE
8
BLACK
6
CONTINUOUS
10
112.295
20
-127.392
11
112.905
21
-127.744
0
LINE
8
BLACK
6
CONTINUOUS
10
112.905
20
-127.744
11
113.359
21
-128.285
0
LINE
8
BLACK
6
CONTINUOUS
10
113.359
20
-128.285
11
113.6
21
-128.947
0
LINE
8
BLACK
6
CONTINUOUS
10
113.6
20
-128.947
11
113.6
21
-129.653
0
LINE
8
BLACK
6
CONTINUOUS
10
113.6
20
-129.653
11
113.359
21
-130.315
0
LINE
8
BLACK
6
CONTINUOUS
10
113.359
20
-130.315
11
112.905
21
-130.856
0
LINE
8
BLACK
6
CONTINUOUS
10
112.905
20
-130.856
11
112.295
21
-131.208
0
LINE
8
BLACK
6
CONTINUOUS
10
112.295
20
-131.208
11
111.6
21
-131.331
0
LINE
8
BLACK
6
CONTINUOUS
10
111.6
20
-131.331
11
110.905
21
-131.208
0
LINE
8
BLACK
6
CONTINUOUS
10
110.905
20
-131.208
11
110.295
21
-130.856
0
LINE
8
BLACK
6
CONTINUOUS
10
110.295
20
-130.856
11
109.841
21
-130.315
0
LINE
8
BLACK
6
CONTINUOUS
10
109.841
20
-130.315
11
109.6
21
-129.653
0
LINE
8
BLACK
6
CONTINUOUS
10
109.6
20
-129.653
11
109.6
21
-128.947
0
LINE
8
BLACK
6
CONTINUOUS
10
109.6
20
-128.947
11
109.841
21
-128.285
0
LINE
8
BLACK
6
CONTINUOUS
10
109.841
20
-128.285
11
110.295
21
-127.744
0
LINE
8
BLACK
6
CONTINUOUS
10
110.295
20
-127.744
11
110.905
21
-127.392
0
LINE
8
BLACK
6
CONTINUOUS
10
110.905
20
-127.392
11
111.6
21
-127.269
0
LINE
8
BLACK
6
CONTINUOUS
10
111.6
20
-127.269
11
112.295
21
-127.392
0
LINE
8
BLACK
6
CONTINUOUS
10
154.939
20
-129.318
11
155.061
21
-129.389
0
LINE
8
BLACK
6
CONTINUOUS
10
155.061
20
-129.389
11
155.152
21
-129.497
0
LINE
8
BLACK
6
CONTINUOUS
10
155.152
20
-129.497
11
155.2
21
-129.629
0
LINE
8
BLACK
6
CONTINUOUS
10
155.2
20
-129.629
11
155.2
21
-129.771
0
LINE
8
BLACK
6
CONTINUOUS
10
155.2
20
-129.771
11
155.152
21
-129.903
0
LINE
8
BLACK
6
CONTINUOUS
10
155.152
20
-129.903
11
155.061
21
-130.011
0
LINE
8
BLACK
6
CONTINUOUS
10
155.061
20
-130.011
11
154.939
21
-130.082
0
LINE
8
BLACK
6
CONTINUOUS
10
154.939
20
-130.082
11
154.8
21
-130.106
0
LINE
8
BLACK
6
CONTINUOUS
10
154.8
20
-130.106
11
154.661
21
-130.082
0
LINE
8
BLACK
6
CONTINUOUS
10
154.661
20
-130.082
11
154.539
21
-130.011
0
LINE
8
BLACK
6
CONTINUOUS
10
154.539
20
-130.011
11
154.448
21
-129.903
0
LINE
8
BLACK
6
CONTINUOUS
10
154.448
20
-129.903
11
154.4
21
-129.771
0
LINE
8
BLACK
6
CONTINUOUS
10
154.4
20
-129.771
11
154.4
21
-129.629
0
LINE
8
BLACK
6
CONTINUOUS
10
154.4
20
-129.629
11
154.448
21
-129.497
0
LINE
8
BLACK
6
CONTINUOUS
10
154.448
20
-129.497
11
154.539
21
-129.389
0
LINE
8
BLACK
6
CONTINUOUS
10
154.539
20
-129.389
11
154.661
21
-129.318
0
LINE
8
BLACK
6
CONTINUOUS
10
154.661
20
-129.318
11
154.8
21
-129.294
0
LINE
8
BLACK
6
CONTINUOUS
10
154.8
20
-129.294
11
154.939
21
-129.318
0
LINE
8
BLACK
6
CONTINUOUS
10
144.156
20
-122.773
11
144.644
21
-123.055
0
LINE
8
BLACK
6
CONTINUOUS
10
144.644
20
-123.055
11
145.007
21
-123.488
0
LINE
8
BLACK
6
CONTINUOUS
10
145.007
20
-123.488
11
145.2
21
-124.018
0
LINE
8
BLACK
6
CONTINUOUS
10
145.2
20
-124.018
11
145.2
21
-124.582
0
LINE
8
BLACK
6
CONTINUOUS
10
145.2
20
-124.582
11
145.007
21
-125.112
0
LINE
8
BLACK
6
CONTINUOUS
10
145.007
20
-125.112
11
144.644
21
-125.545
0
LINE
8
BLACK
6
CONTINUOUS
10
144.644
20
-125.545
11
144.156
21
-125.827
0
LINE
8
BLACK
6
CONTINUOUS
10
144.156
20
-125.827
11
143.6
21
-125.925
0
LINE
8
BLACK
6
CONTINUOUS
10
143.6
20
-125.925
11
143.044
21
-125.827
0
LINE
8
BLACK
6
CONTINUOUS
10
143.044
20
-125.827
11
142.556
21
-125.545
0
LINE
8
BLACK
6
CONTINUOUS
10
142.556
20
-125.545
11
142.193
21
-125.112
0
LINE
8
BLACK
6
CONTINUOUS
10
142.193
20
-125.112
11
142
21
-124.582
0
LINE
8
BLACK
6
CONTINUOUS
10
142
20
-124.582
11
142
21
-124.018
0
LINE
8
BLACK
6
CONTINUOUS
10
142
20
-124.018
11
142.193
21
-123.488
0
LINE
8
BLACK
6
CONTINUOUS
10
142.193
20
-123.488
11
142.556
21
-123.055
0
LINE
8
BLACK
6
CONTINUOUS
10
142.556
20
-123.055
11
143.044
21
-122.773
0
LINE
8
BLACK
6
CONTINUOUS
10
143.044
20
-122.773
11
143.6
21
-122.675
0
LINE
8
BLACK
6
CONTINUOUS
10
143.6
20
-122.675
11
144.156
21
-122.773
0
LINE
8
BLACK
6
CONTINUOUS
10
115.256
20
-122.773
11
115.744
21
-123.055
0
LINE
8
BLACK
6
CONTINUOUS
10
115.744
20
-123.055
11
116.107
21
-123.488
0
LINE
8
BLACK
6
CONTINUOUS
10
116.107
20
-123.488
11
116.3
21
-124.018
0
LINE
8
BLACK
6
CONTINUOUS
10
116.3
20
-124.018
11
116.3
21
-124.582
0
LINE
8
BLACK
6
CONTINUOUS
10
116.3
20
-124.582
11
116.107
21
-125.112
0
LINE
8
BLACK
6
CONTINUOUS
10
116.107
20
-125.112
11
115.744
21
-125.545
0
LINE
8
BLACK
6
CONTINUOUS
10
115.744
20
-125.545
11
115.256
21
-125.827
0
LINE
8
BLACK
6
CONTINUOUS
10
115.256
20
-125.827
11
114.7
21
-125.925
0
LINE
8
BLACK
6
CONTINUOUS
10
114.7
20
-125.925
11
114.144
21
-125.827
0
LINE
8
BLACK
6
CONTINUOUS
10
114.144
20
-125.827
11
113.656
21
-125.545
0
LINE
8
BLACK
6
CONTINUOUS
10
113.656
20
-125.545
11
113.293
21
-125.112
0
LINE
8
BLACK
6
CONTINUOUS
10
113.293
20
-125.112
11
113.1
21
-124.582
0
LINE
8
BLACK
6
CONTINUOUS
10
113.1
20
-124.582
11
113.1
21
-124.018
0
LINE
8
BLACK
6
CONTINUOUS
10
113.1
20
-124.018
11
113.293
21
-123.488
0
LINE
8
BLACK
6
CONTINUOUS
10
113.293
20
-123.488
11
113.656
21
-123.055
0
LINE
8
BLACK
6
CONTINUOUS
10
113.656
20
-123.055
11
114.144
21
-122.773
0
LINE
8
BLACK
6
CONTINUOUS
10
114.144
20
-122.773
11
114.7
21
-122.675
0
LINE
8
BLACK
6
CONTINUOUS
10
114.7
20
-122.675
11
115.256
21
-122.773
0
LINE
8
BLACK
6
CONTINUOUS
10
156.182
20
-122.25
11
156.518
21
-122.444
0
LINE
8
BLACK
6
CONTINUOUS
10
156.518
20
-122.444
11
156.767
21
-122.742
0
LINE
8
BLACK
6
CONTINUOUS
10
156.767
20
-122.742
11
156.9
21
-123.106
0
LINE
8
BLACK
6
CONTINUOUS
10
156.9
20
-123.106
11
156.9
21
-123.494
0
LINE
8
BLACK
6
CONTINUOUS
10
156.9
20
-123.494
11
156.767
21
-123.858
0
LINE
8
BLACK
6
CONTINUOUS
10
156.767
20
-123.858
11
156.518
21
-124.156
0
LINE
8
BLACK
6
CONTINUOUS
10
156.518
20
-124.156
11
156.182
21
-124.35
0
LINE
8
BLACK
6
CONTINUOUS
10
156.182
20
-124.35
11
155.8
21
-124.417
0
LINE
8
BLACK
6
CONTINUOUS
10
155.8
20
-124.417
11
155.418
21
-124.35
0
LINE
8
BLACK
6
CONTINUOUS
10
155.418
20
-124.35
11
155.082
21
-124.156
0
LINE
8
BLACK
6
CONTINUOUS
10
155.082
20
-124.156
11
154.833
21
-123.858
0
LINE
8
BLACK
6
CONTINUOUS
10
154.833
20
-123.858
11
154.7
21
-123.494
0
LINE
8
BLACK
6
CONTINUOUS
10
154.7
20
-123.494
11
154.7
21
-123.106
0
LINE
8
BLACK
6
CONTINUOUS
10
154.7
20
-123.106
11
154.833
21
-122.742
0
LINE
8
BLACK
6
CONTINUOUS
10
154.833
20
-122.742
11
155.082
21
-122.444
0
LINE
8
BLACK
6
CONTINUOUS
10
155.082
20
-122.444
11
155.418
21
-122.25
0
LINE
8
BLACK
6
CONTINUOUS
10
155.418
20
-122.25
11
155.8
21
-122.183
0
LINE
8
BLACK
6
CONTINUOUS
10
155.8
20
-122.183
11
156.182
21
-122.25
0
LINE
8
BLACK
6
CONTINUOUS
10
102.982
20
-122.25
11
103.318
21
-122.444
0
LINE
8
BLACK
6
CONTINUOUS
10
103.318
20
-122.444
11
103.567
21
-122.742
0
LINE
8
BLACK
6
CONTINUOUS
10
103.567
20
-122.742
11
103.7
21
-123.106
0
LINE
8
BLACK
6
CONTINUOUS
10
103.7
20
-123.106
11
103.7
21
-123.494
0
LINE
8
BLACK
6
CONTINUOUS
10
103.7
20
-123.494
11
103.567
21
-123.858
0
LINE
8
BLACK
6
CONTINUOUS
10
103.567
20
-123.858
11
103.318
21
-124.156
0
LINE
8
BLACK
6
CONTINUOUS
10
103.318
20
-124.156
11
102.982
21
-124.35
0
LINE
8
BLACK
6
CONTINUOUS
10
102.982
20
-124.35
11
102.6
21
-124.417
0
LINE
8
BLACK
6
CONTINUOUS
10
102.6
20
-124.417
11
102.218
21
-124.35
0
LINE
8
BLACK
6
CONTINUOUS
10
102.218
20
-124.35
11
101.882
21
-124.156
0
LINE
8
BLACK
6
CONTINUOUS
10
101.882
20
-124.156
11
101.633
21
-123.858
0
LINE
8
BLACK
6
CONTINUOUS
10
101.633
20
-123.858
11
101.5
21
-123.494
0
LINE
8
BLACK
6
CONTINUOUS
10
101.5
20
-123.494
11
101.5
21
-123.106
0
LINE
8
BLACK
6
CONTINUOUS
10
101.5
20
-123.106
11
101.633
21
-122.742
0
LINE
8
BLACK
6
CONTINUOUS
10
101.633
20
-122.742
11
101.882
21
-122.444
0
LINE
8
BLACK
6
CONTINUOUS
10
101.882
20
-122.444
11
102.218
21
-122.25
0
LINE
8
BLACK
6
CONTINUOUS
10
102.218
20
-122.25
11
102.6
21
-122.183
0
LINE
8
BLACK
6
CONTINUOUS
10
102.6
20
-122.183
11
102.982
21
-122.25
0
LINE
8
BLACK
6
CONTINUOUS
10
99.95
20
-98.875
11
99.3
21
-98.875
0
LINE
8
BLACK
6
CONTINUOUS
10
99.3
20
-98.875
11
99.3
21
-99.1685
0
LINE
8
BLACK
6
CONTINUOUS
10
99.3
20
-99.1685
11
99.3017
21
-99.1883
0
LINE
8
BLACK
6
CONTINUOUS
10
99.3017
20
-99.1883
11
99.2966
21
-99.2075
0
LINE
8
BLACK
6
CONTINUOUS
10
99.2966
20
-99.2075
11
99.2931
21
-99.2271
0
LINE
8
BLACK
6
CONTINUOUS
10
99.2931
20
-99.2271
11
99.2898
21
-99.2329
0
LINE
8
BLACK
6
CONTINUOUS
10
99.2898
20
-99.2329
11
99.288
21
-99.2394
0
LINE
8
BLACK
6
CONTINUOUS
10
99.288
20
-99.2394
11
99.2766
21
-99.2557
0
LINE
8
BLACK
6
CONTINUOUS
10
99.2766
20
-99.2557
11
99.2667
21
-99.2729
0
LINE
8
BLACK
6
CONTINUOUS
10
99.2667
20
-99.2729
11
99.2514
21
-99.2857
0
LINE
8
BLACK
6
CONTINUOUS
10
99.2514
20
-99.2857
11
98.55
21
-99.9871
0
LINE
8
BLACK
6
CONTINUOUS
10
98.55
20
-99.9871
11
98.55
21
-108.838
0
LINE
8
BLACK
6
CONTINUOUS
10
98.55
20
-108.838
11
98.7014
21
-108.989
0
LINE
8
BLACK
6
CONTINUOUS
10
98.7014
20
-108.989
11
98.7167
21
-109.002
0
LINE
8
BLACK
6
CONTINUOUS
10
98.7167
20
-109.002
11
98.7266
21
-109.019
0
LINE
8
BLACK
6
CONTINUOUS
10
98.7266
20
-109.019
11
98.738
21
-109.036
0
LINE
8
BLACK
6
CONTINUOUS
10
98.738
20
-109.036
11
98.7398
21
-109.042
0
LINE
8
BLACK
6
CONTINUOUS
10
98.7398
20
-109.042
11
98.7431
21
-109.048
0
LINE
8
BLACK
6
CONTINUOUS
10
98.7431
20
-109.048
11
98.7466
21
-109.067
0
LINE
8
BLACK
6
CONTINUOUS
10
98.7466
20
-109.067
11
98.7517
21
-109.087
0
LINE
8
BLACK
6
CONTINUOUS
10
98.7517
20
-109.087
11
98.75
21
-109.107
0
LINE
8
BLACK
6
CONTINUOUS
10
98.75
20
-109.107
11
98.75
21
-110.038
0
LINE
8
BLACK
6
CONTINUOUS
10
98.75
20
-110.038
11
99.4621
21
-110.75
0
LINE
8
BLACK
6
CONTINUOUS
10
99.4621
20
-110.75
11
100.393
21
-110.75
0
LINE
8
BLACK
6
CONTINUOUS
10
100.393
20
-110.75
11
100.413
21
-110.748
0
LINE
8
BLACK
6
CONTINUOUS
10
100.413
20
-110.748
11
100.432
21
-110.753
0
LINE
8
BLACK
6
CONTINUOUS
10
100.432
20
-110.753
11
100.452
21
-110.757
0
LINE
8
BLACK
6
CONTINUOUS
10
100.452
20
-110.757
11
100.458
21
-110.76
0
LINE
8
BLACK
6
CONTINUOUS
10
100.458
20
-110.76
11
100.464
21
-110.762
0
LINE
8
BLACK
6
CONTINUOUS
10
100.464
20
-110.762
11
100.481
21
-110.773
0
LINE
8
BLACK
6
CONTINUOUS
10
100.481
20
-110.773
11
100.498
21
-110.783
0
LINE
8
BLACK
6
CONTINUOUS
10
100.498
20
-110.783
11
100.511
21
-110.799
0
LINE
8
BLACK
6
CONTINUOUS
10
100.511
20
-110.799
11
101.701
21
-111.989
0
LINE
8
BLACK
6
CONTINUOUS
10
101.701
20
-111.989
11
101.717
21
-112.002
0
LINE
8
BLACK
6
CONTINUOUS
10
101.717
20
-112.002
11
101.727
21
-112.019
0
LINE
8
BLACK
6
CONTINUOUS
10
101.727
20
-112.019
11
101.738
21
-112.036
0
LINE
8
BLACK
6
CONTINUOUS
10
101.738
20
-112.036
11
101.74
21
-112.042
0
LINE
8
BLACK
6
CONTINUOUS
10
101.74
20
-112.042
11
101.743
21
-112.048
0
LINE
8
BLACK
6
CONTINUOUS
10
101.743
20
-112.048
11
101.747
21
-112.068
0
LINE
8
BLACK
6
CONTINUOUS
10
101.747
20
-112.068
11
101.752
21
-112.087
0
LINE
8
BLACK
6
CONTINUOUS
10
101.752
20
-112.087
11
101.75
21
-112.107
0
LINE
8
BLACK
6
CONTINUOUS
10
101.75
20
-112.107
11
101.75
21
-113.086
0
LINE
8
BLACK
6
CONTINUOUS
10
101.75
20
-113.086
11
104.214
21
-115.55
0
LINE
8
BLACK
6
CONTINUOUS
10
104.214
20
-115.55
11
105.453
21
-115.55
0
LINE
8
BLACK
6
CONTINUOUS
10
105.453
20
-115.55
11
105.473
21
-115.548
0
LINE
8
BLACK
6
CONTINUOUS
10
105.473
20
-115.548
11
105.493
21
-115.553
0
LINE
8
BLACK
6
CONTINUOUS
10
105.493
20
-115.553
11
105.512
21
-115.557
0
LINE
8
BLACK
6
CONTINUOUS
10
105.512
20
-115.557
11
105.518
21
-115.56
0
LINE
8
BLACK
6
CONTINUOUS
10
105.518
20
-115.56
11
105.524
21
-115.562
0
LINE
8
BLACK
6
CONTINUOUS
10
105.524
20
-115.562
11
105.541
21
-115.573
0
LINE
8
BLACK
6
CONTINUOUS
10
105.541
20
-115.573
11
105.558
21
-115.583
0
LINE
8
BLACK
6
CONTINUOUS
10
105.558
20
-115.583
11
105.571
21
-115.599
0
LINE
8
BLACK
6
CONTINUOUS
10
105.571
20
-115.599
11
108.165
21
-118.193
0
LINE
8
BLACK
6
CONTINUOUS
10
108.165
20
-118.193
11
108.165
21
-118.193
0
LINE
8
BLACK
6
CONTINUOUS
10
108.165
20
-118.193
11
108.412
21
-118.44
0
LINE
8
BLACK
6
CONTINUOUS
10
108.412
20
-118.44
11
108.605
21
-118.329
0
LINE
8
BLACK
6
CONTINUOUS
10
108.605
20
-118.329
11
108.826
21
-118.29
0
LINE
8
BLACK
6
CONTINUOUS
10
108.826
20
-118.29
11
108.974
21
-118.29
0
LINE
8
BLACK
6
CONTINUOUS
10
108.974
20
-118.29
11
109.195
21
-118.329
0
LINE
8
BLACK
6
CONTINUOUS
10
109.195
20
-118.329
11
109.388
21
-118.44
0
LINE
8
BLACK
6
CONTINUOUS
10
109.388
20
-118.44
11
110.85
21
-116.978
0
LINE
8
BLACK
6
CONTINUOUS
10
110.85
20
-116.978
11
110.85
21
-116.3
0
LINE
8
BLACK
6
CONTINUOUS
10
110.85
20
-116.3
11
111.75
21
-116.3
0
LINE
8
BLACK
6
CONTINUOUS
10
111.75
20
-116.3
11
111.75
21
-117.5
0
LINE
8
BLACK
6
CONTINUOUS
10
111.75
20
-117.5
11
110.85
21
-117.5
0
LINE
8
BLACK
6
CONTINUOUS
10
110.85
20
-117.5
11
110.85
21
-117.402
0
LINE
8
BLACK
6
CONTINUOUS
10
110.85
20
-117.402
11
109.6
21
-118.652
0
LINE
8
BLACK
6
CONTINUOUS
10
109.6
20
-118.652
11
109.647
21
-118.708
0
LINE
8
BLACK
6
CONTINUOUS
10
109.647
20
-118.708
11
109.75
21
-118.99
0
LINE
8
BLACK
6
CONTINUOUS
10
109.75
20
-118.99
11
109.75
21
-119.29
0
LINE
8
BLACK
6
CONTINUOUS
10
109.75
20
-119.29
11
109.647
21
-119.572
0
LINE
8
BLACK
6
CONTINUOUS
10
109.647
20
-119.572
11
109.455
21
-119.801
0
LINE
8
BLACK
6
CONTINUOUS
10
109.455
20
-119.801
11
109.195
21
-119.951
0
LINE
8
BLACK
6
CONTINUOUS
10
109.195
20
-119.951
11
108.974
21
-119.99
0
LINE
8
BLACK
6
CONTINUOUS
10
108.974
20
-119.99
11
108.826
21
-119.99
0
LINE
8
BLACK
6
CONTINUOUS
10
108.826
20
-119.99
11
108.605
21
-119.951
0
LINE
8
BLACK
6
CONTINUOUS
10
108.605
20
-119.951
11
108.345
21
-119.801
0
LINE
8
BLACK
6
CONTINUOUS
10
108.345
20
-119.801
11
108.153
21
-119.572
0
LINE
8
BLACK
6
CONTINUOUS
10
108.153
20
-119.572
11
108.05
21
-119.29
0
LINE
8
BLACK
6
CONTINUOUS
10
108.05
20
-119.29
11
108.05
21
-118.99
0
LINE
8
BLACK
6
CONTINUOUS
10
108.05
20
-118.99
11
108.153
21
-118.708
0
LINE
8
BLACK
6
CONTINUOUS
10
108.153
20
-118.708
11
108.2
21
-118.652
0
LINE
8
BLACK
6
CONTINUOUS
10
108.2
20
-118.652
11
107.953
21
-118.405
0
LINE
8
BLACK
6
CONTINUOUS
10
107.953
20
-118.405
11
107.953
21
-118.405
0
LINE
8
BLACK
6
CONTINUOUS
10
107.953
20
-118.405
11
105.398
21
-115.85
0
LINE
8
BLACK
6
CONTINUOUS
10
105.398
20
-115.85
11
104.158
21
-115.85
0
LINE
8
BLACK
6
CONTINUOUS
10
104.158
20
-115.85
11
104.138
21
-115.852
0
LINE
8
BLACK
6
CONTINUOUS
10
104.138
20
-115.852
11
104.119
21
-115.847
0
LINE
8
BLACK
6
CONTINUOUS
10
104.119
20
-115.847
11
104.099
21
-115.843
0
LINE
8
BLACK
6
CONTINUOUS
10
104.099
20
-115.843
11
104.094
21
-115.84
0
LINE
8
BLACK
6
CONTINUOUS
10
104.094
20
-115.84
11
104.087
21
-115.838
0
LINE
8
BLACK
6
CONTINUOUS
10
104.087
20
-115.838
11
104.071
21
-115.827
0
LINE
8
BLACK
6
CONTINUOUS
10
104.071
20
-115.827
11
104.054
21
-115.817
0
LINE
8
BLACK
6
CONTINUOUS
10
104.054
20
-115.817
11
104.041
21
-115.801
0
LINE
8
BLACK
6
CONTINUOUS
10
104.041
20
-115.801
11
101.499
21
-113.259
0
LINE
8
BLACK
6
CONTINUOUS
10
101.499
20
-113.259
11
101.483
21
-113.246
0
LINE
8
BLACK
6
CONTINUOUS
10
101.483
20
-113.246
11
101.473
21
-113.229
0
LINE
8
BLACK
6
CONTINUOUS
10
101.473
20
-113.229
11
101.462
21
-113.213
0
LINE
8
BLACK
6
CONTINUOUS
10
101.462
20
-113.213
11
101.46
21
-113.206
0
LINE
8
BLACK
6
CONTINUOUS
10
101.46
20
-113.206
11
101.457
21
-113.201
0
LINE
8
BLACK
6
CONTINUOUS
10
101.457
20
-113.201
11
101.453
21
-113.181
0
LINE
8
BLACK
6
CONTINUOUS
10
101.453
20
-113.181
11
101.448
21
-113.162
0
LINE
8
BLACK
6
CONTINUOUS
10
101.448
20
-113.162
11
101.45
21
-113.142
0
LINE
8
BLACK
6
CONTINUOUS
10
101.45
20
-113.142
11
101.45
21
-112.162
0
LINE
8
BLACK
6
CONTINUOUS
10
101.45
20
-112.162
11
100.338
21
-111.05
0
LINE
8
BLACK
6
CONTINUOUS
10
100.338
20
-111.05
11
99.4065
21
-111.05
0
LINE
8
BLACK
6
CONTINUOUS
10
99.4065
20
-111.05
11
99.3867
21
-111.052
0
LINE
8
BLACK
6
CONTINUOUS
10
99.3867
20
-111.052
11
99.3675
21
-111.047
0
LINE
8
BLACK
6
CONTINUOUS
10
99.3675
20
-111.047
11
99.3479
21
-111.043
0
LINE
8
BLACK
6
CONTINUOUS
10
99.3479
20
-111.043
11
99.3421
21
-111.04
0
LINE
8
BLACK
6
CONTINUOUS
10
99.3421
20
-111.04
11
99.3356
21
-111.038
0
LINE
8
BLACK
6
CONTINUOUS
10
99.3356
20
-111.038
11
99.3193
21
-111.027
0
LINE
8
BLACK
6
CONTINUOUS
10
99.3193
20
-111.027
11
99.3021
21
-111.017
0
LINE
8
BLACK
6
CONTINUOUS
10
99.3021
20
-111.017
11
99.2893
21
-111.001
0
LINE
8
BLACK
6
CONTINUOUS
10
99.2893
20
-111.001
11
98.4986
21
-110.211
0
LINE
8
BLACK
6
CONTINUOUS
10
98.4986
20
-110.211
11
98.4833
21
-110.198
0
LINE
8
BLACK
6
CONTINUOUS
10
98.4833
20
-110.198
11
98.4734
21
-110.181
0
LINE
8
BLACK
6
CONTINUOUS
10
98.4734
20
-110.181
11
98.462
21
-110.164
0
LINE
8
BLACK
6
CONTINUOUS
10
98.462
20
-110.164
11
98.4602
21
-110.158
0
LINE
8
BLACK
6
CONTINUOUS
10
98.4602
20
-110.158
11
98.4569
21
-110.152
0
LINE
8
BLACK
6
CONTINUOUS
10
98.4569
20
-110.152
11
98.4534
21
-110.133
0
LINE
8
BLACK
6
CONTINUOUS
10
98.4534
20
-110.133
11
98.4483
21
-110.113
0
LINE
8
BLACK
6
CONTINUOUS
10
98.4483
20
-110.113
11
98.45
21
-110.093
0
LINE
8
BLACK
6
CONTINUOUS
10
98.45
20
-110.093
11
98.45
21
-109.162
0
LINE
8
BLACK
6
CONTINUOUS
10
98.45
20
-109.162
11
98.2986
21
-109.011
0
LINE
8
BLACK
6
CONTINUOUS
10
98.2986
20
-109.011
11
98.2833
21
-108.998
0
LINE
8
BLACK
6
CONTINUOUS
10
98.2833
20
-108.998
11
98.2734
21
-108.981
0
LINE
8
BLACK
6
CONTINUOUS
10
98.2734
20
-108.981
11
98.262
21
-108.964
0
LINE
8
BLACK
6
CONTINUOUS
10
98.262
20
-108.964
11
98.2602
21
-108.958
0
LINE
8
BLACK
6
CONTINUOUS
10
98.2602
20
-108.958
11
98.2569
21
-108.952
0
LINE
8
BLACK
6
CONTINUOUS
10
98.2569
20
-108.952
11
98.2534
21
-108.933
0
LINE
8
BLACK
6
CONTINUOUS
10
98.2534
20
-108.933
11
98.2483
21
-108.913
0
LINE
8
BLACK
6
CONTINUOUS
10
98.2483
20
-108.913
11
98.25
21
-108.893
0
LINE
8
BLACK
6
CONTINUOUS
10
98.25
20
-108.893
11
98.25
21
-99.9315
0
LINE
8
BLACK
6
CONTINUOUS
10
98.25
20
-99.9315
11
98.2483
21
-99.9117
0
LINE
8
BLACK
6
CONTINUOUS
10
98.2483
20
-99.9117
11
98.2534
21
-99.8925
0
LINE
8
BLACK
6
CONTINUOUS
10
98.2534
20
-99.8925
11
98.2569
21
-99.8729
0
LINE
8
BLACK
6
CONTINUOUS
10
98.2569
20
-99.8729
11
98.2602
21
-99.8671
0
LINE
8
BLACK
6
CONTINUOUS
10
98.2602
20
-99.8671
11
98.262
21
-99.8606
0
LINE
8
BLACK
6
CONTINUOUS
10
98.262
20
-99.8606
11
98.2734
21
-99.8443
0
LINE
8
BLACK
6
CONTINUOUS
10
98.2734
20
-99.8443
11
98.2833
21
-99.8271
0
LINE
8
BLACK
6
CONTINUOUS
10
98.2833
20
-99.8271
11
98.2986
21
-99.8143
0
LINE
8
BLACK
6
CONTINUOUS
10
98.2986
20
-99.8143
11
99
21
-99.1129
0
LINE
8
BLACK
6
CONTINUOUS
10
99
20
-99.1129
11
99
21
-98.875
0
LINE
8
BLACK
6
CONTINUOUS
10
99
20
-98.875
11
98.35
21
-98.875
0
LINE
8
BLACK
6
CONTINUOUS
10
98.35
20
-98.875
11
98.35
21
-98.325
0
LINE
8
BLACK
6
CONTINUOUS
10
98.35
20
-98.325
11
99.95
21
-98.325
0
LINE
8
BLACK
6
CONTINUOUS
10
99.95
20
-98.325
11
99.95
21
-98.875
0
LINE
8
BLACK
6
CONTINUOUS
10
104.131
20
-116.153
11
104.253
21
-116.224
0
LINE
8
BLACK
6
CONTINUOUS
10
104.253
20
-116.224
11
104.344
21
-116.332
0
LINE
8
BLACK
6
CONTINUOUS
10
104.344
20
-116.332
11
104.392
21
-116.464
0
LINE
8
BLACK
6
CONTINUOUS
10
104.392
20
-116.464
11
104.392
21
-116.605
0
LINE
8
BLACK
6
CONTINUOUS
10
104.392
20
-116.605
11
104.344
21
-116.738
0
LINE
8
BLACK
6
CONTINUOUS
10
104.344
20
-116.738
11
104.253
21
-116.846
0
LINE
8
BLACK
6
CONTINUOUS
10
104.253
20
-116.846
11
104.131
21
-116.917
0
LINE
8
BLACK
6
CONTINUOUS
10
104.131
20
-116.917
11
103.992
21
-116.941
0
LINE
8
BLACK
6
CONTINUOUS
10
103.992
20
-116.941
11
103.853
21
-116.917
0
LINE
8
BLACK
6
CONTINUOUS
10
103.853
20
-116.917
11
103.834
21
-116.905
0
LINE
8
BLACK
6
CONTINUOUS
10
103.834
20
-116.905
11
103.738
21
-117.001
0
LINE
8
BLACK
6
CONTINUOUS
10
103.738
20
-117.001
11
103.725
21
-117.017
0
LINE
8
BLACK
6
CONTINUOUS
10
103.725
20
-117.017
11
103.708
21
-117.027
0
LINE
8
BLACK
6
CONTINUOUS
10
103.708
20
-117.027
11
103.691
21
-117.038
0
LINE
8
BLACK
6
CONTINUOUS
10
103.691
20
-117.038
11
103.685
21
-117.04
0
LINE
8
BLACK
6
CONTINUOUS
10
103.685
20
-117.04
11
103.679
21
-117.043
0
LINE
8
BLACK
6
CONTINUOUS
10
103.679
20
-117.043
11
103.659
21
-117.047
0
LINE
8
BLACK
6
CONTINUOUS
10
103.659
20
-117.047
11
103.64
21
-117.052
0
LINE
8
BLACK
6
CONTINUOUS
10
103.64
20
-117.052
11
103.62
21
-117.05
0
LINE
8
BLACK
6
CONTINUOUS
10
103.62
20
-117.05
11
103.15
21
-117.05
0
LINE
8
BLACK
6
CONTINUOUS
10
103.15
20
-117.05
11
103.15
21
-117.5
0
LINE
8
BLACK
6
CONTINUOUS
10
103.15
20
-117.5
11
102.462
21
-117.5
0
LINE
8
BLACK
6
CONTINUOUS
10
102.462
20
-117.5
11
101.305
21
-118.657
0
LINE
8
BLACK
6
CONTINUOUS
10
101.305
20
-118.657
11
101.347
21
-118.708
0
LINE
8
BLACK
6
CONTINUOUS
10
101.347
20
-118.708
11
101.45
21
-118.99
0
LINE
8
BLACK
6
CONTINUOUS
10
101.45
20
-118.99
11
101.45
21
-119.29
0
LINE
8
BLACK
6
CONTINUOUS
10
101.45
20
-119.29
11
101.347
21
-119.572
0
LINE
8
BLACK
6
CONTINUOUS
10
101.347
20
-119.572
11
101.155
21
-119.801
0
LINE
8
BLACK
6
CONTINUOUS
10
101.155
20
-119.801
11
100.895
21
-119.951
0
LINE
8
BLACK
6
CONTINUOUS
10
100.895
20
-119.951
11
100.674
21
-119.99
0
LINE
8
BLACK
6
CONTINUOUS
10
100.674
20
-119.99
11
100.526
21
-119.99
0
LINE
8
BLACK
6
CONTINUOUS
10
100.526
20
-119.99
11
100.305
21
-119.951
0
LINE
8
BLACK
6
CONTINUOUS
10
100.305
20
-119.951
11
100.045
21
-119.801
0
LINE
8
BLACK
6
CONTINUOUS
10
100.045
20
-119.801
11
99.8525
21
-119.572
0
LINE
8
BLACK
6
CONTINUOUS
10
99.8525
20
-119.572
11
99.75
21
-119.29
0
LINE
8
BLACK
6
CONTINUOUS
10
99.75
20
-119.29
11
99.75
21
-118.99
0
LINE
8
BLACK
6
CONTINUOUS
10
99.75
20
-118.99
11
99.8525
21
-118.708
0
LINE
8
BLACK
6
CONTINUOUS
10
99.8525
20
-118.708
11
100.045
21
-118.479
0
LINE
8
BLACK
6
CONTINUOUS
10
100.045
20
-118.479
11
100.305
21
-118.329
0
LINE
8
BLACK
6
CONTINUOUS
10
100.305
20
-118.329
11
100.526
21
-118.29
0
LINE
8
BLACK
6
CONTINUOUS
10
100.526
20
-118.29
11
100.674
21
-118.29
0
LINE
8
BLACK
6
CONTINUOUS
10
100.674
20
-118.29
11
100.895
21
-118.329
0
LINE
8
BLACK
6
CONTINUOUS
10
100.895
20
-118.329
11
101.094
21
-118.444
0
LINE
8
BLACK
6
CONTINUOUS
10
101.094
20
-118.444
11
102.25
21
-117.288
0
LINE
8
BLACK
6
CONTINUOUS
10
102.25
20
-117.288
11
102.25
21
-116.3
0
LINE
8
BLACK
6
CONTINUOUS
10
102.25
20
-116.3
11
103.15
21
-116.3
0
LINE
8
BLACK
6
CONTINUOUS
10
103.15
20
-116.3
11
103.15
21
-116.75
0
LINE
8
BLACK
6
CONTINUOUS
10
103.15
20
-116.75
11
103.565
21
-116.75
0
LINE
8
BLACK
6
CONTINUOUS
10
103.565
20
-116.75
11
103.623
21
-116.691
0
LINE
8
BLACK
6
CONTINUOUS
10
103.623
20
-116.691
11
103.592
21
-116.605
0
LINE
8
BLACK
6
CONTINUOUS
10
103.592
20
-116.605
11
103.592
21
-116.464
0
LINE
8
BLACK
6
CONTINUOUS
10
103.592
20
-116.464
11
103.64
21
-116.332
0
LINE
8
BLACK
6
CONTINUOUS
10
103.64
20
-116.332
11
103.731
21
-116.224
0
LINE
8
BLACK
6
CONTINUOUS
10
103.731
20
-116.224
11
103.853
21
-116.153
0
LINE
8
BLACK
6
CONTINUOUS
10
103.853
20
-116.153
11
103.992
21
-116.129
0
LINE
8
BLACK
6
CONTINUOUS
10
103.992
20
-116.129
11
104.131
21
-116.153
0
LINE
8
BLACK
6
CONTINUOUS
10
153.513
20
-117.097
11
153.787
21
-117.256
0
LINE
8
BLACK
6
CONTINUOUS
10
153.787
20
-117.256
11
153.991
21
-117.499
0
LINE
8
BLACK
6
CONTINUOUS
10
153.991
20
-117.499
11
154.1
21
-117.797
0
LINE
8
BLACK
6
CONTINUOUS
10
154.1
20
-117.797
11
154.1
21
-118.115
0
LINE
8
BLACK
6
CONTINUOUS
10
154.1
20
-118.115
11
153.991
21
-118.413
0
LINE
8
BLACK
6
CONTINUOUS
10
153.991
20
-118.413
11
153.787
21
-118.656
0
LINE
8
BLACK
6
CONTINUOUS
10
153.787
20
-118.656
11
153.513
21
-118.815
0
LINE
8
BLACK
6
CONTINUOUS
10
153.513
20
-118.815
11
153.2
21
-118.87
0
LINE
8
BLACK
6
CONTINUOUS
10
153.2
20
-118.87
11
152.887
21
-118.815
0
LINE
8
BLACK
6
CONTINUOUS
10
152.887
20
-118.815
11
152.613
21
-118.656
0
LINE
8
BLACK
6
CONTINUOUS
10
152.613
20
-118.656
11
152.409
21
-118.413
0
LINE
8
BLACK
6
CONTINUOUS
10
152.409
20
-118.413
11
152.3
21
-118.115
0
LINE
8
BLACK
6
CONTINUOUS
10
152.3
20
-118.115
11
152.3
21
-117.797
0
LINE
8
BLACK
6
CONTINUOUS
10
152.3
20
-117.797
11
152.409
21
-117.499
0
LINE
8
BLACK
6
CONTINUOUS
10
152.409
20
-117.499
11
152.613
21
-117.256
0
LINE
8
BLACK
6
CONTINUOUS
10
152.613
20
-117.256
11
152.887
21
-117.097
0
LINE
8
BLACK
6
CONTINUOUS
10
152.887
20
-117.097
11
153.2
21
-117.042
0
LINE
8
BLACK
6
CONTINUOUS
10
153.2
20
-117.042
11
153.513
21
-117.097
0
LINE
8
BLACK
6
CONTINUOUS
10
105.413
20
-117.097
11
105.687
21
-117.256
0
LINE
8
BLACK
6
CONTINUOUS
10
105.687
20
-117.256
11
105.891
21
-117.499
0
LINE
8
BLACK
6
CONTINUOUS
10
105.891
20
-117.499
11
106
21
-117.797
0
LINE
8
BLACK
6
CONTINUOUS
10
106
20
-117.797
11
106
21
-118.115
0
LINE
8
BLACK
6
CONTINUOUS
10
106
20
-118.115
11
105.891
21
-118.413
0
LINE
8
BLACK
6
CONTINUOUS
10
105.891
20
-118.413
11
105.687
21
-118.656
0
LINE
8
BLACK
6
CONTINUOUS
10
105.687
20
-118.656
11
105.413
21
-118.815
0
LINE
8
BLACK
6
CONTINUOUS
10
105.413
20
-118.815
11
105.1
21
-118.87
0
LINE
8
BLACK
6
CONTINUOUS
10
105.1
20
-118.87
11
104.787
21
-118.815
0
LINE
8
BLACK
6
CONTINUOUS
10
104.787
20
-118.815
11
104.513
21
-118.656
0
LINE
8
BLACK
6
CONTINUOUS
10
104.513
20
-118.656
11
104.309
21
-118.413
0
LINE
8
BLACK
6
CONTINUOUS
10
104.309
20
-118.413
11
104.2
21
-118.115
0
LINE
8
BLACK
6
CONTINUOUS
10
104.2
20
-118.115
11
104.2
21
-117.797
0
LINE
8
BLACK
6
CONTINUOUS
10
104.2
20
-117.797
11
104.309
21
-117.499
0
LINE
8
BLACK
6
CONTINUOUS
10
104.309
20
-117.499
11
104.513
21
-117.256
0
LINE
8
BLACK
6
CONTINUOUS
10
104.513
20
-117.256
11
104.787
21
-117.097
0
LINE
8
BLACK
6
CONTINUOUS
10
104.787
20
-117.097
11
105.1
21
-117.042
0
LINE
8
BLACK
6
CONTINUOUS
10
105.1
20
-117.042
11
105.413
21
-117.097
0
LINE
8
BLACK
6
CONTINUOUS
10
123.702
20
-97.1148
11
123.719
21
-97.0944
0
LINE
8
BLACK
6
CONTINUOUS
10
123.719
20
-97.0944
11
123.742
21
-97.0812
0
LINE
8
BLACK
6
CONTINUOUS
10
123.742
20
-97.0812
11
123.764
21
-97.0659
0
LINE
8
BLACK
6
CONTINUOUS
10
123.764
20
-97.0659
11
123.773
21
-97.0636
0
LINE
8
BLACK
6
CONTINUOUS
10
123.773
20
-97.0636
11
123.781
21
-97.0592
0
LINE
8
BLACK
6
CONTINUOUS
10
123.781
20
-97.0592
11
123.807
21
-97.0546
0
LINE
8
BLACK
6
CONTINUOUS
10
123.807
20
-97.0546
11
123.832
21
-97.0477
0
LINE
8
BLACK
6
CONTINUOUS
10
123.832
20
-97.0477
11
123.859
21
-97.05
0
LINE
8
BLACK
6
CONTINUOUS
10
123.859
20
-97.05
11
128.667
21
-97.05
0
LINE
8
BLACK
6
CONTINUOUS
10
128.667
20
-97.05
11
132.898
21
-92.8193
0
LINE
8
BLACK
6
CONTINUOUS
10
132.898
20
-92.8193
11
132.825
21
-92.619
0
LINE
8
BLACK
6
CONTINUOUS
10
132.825
20
-92.619
11
132.825
21
-92.381
0
LINE
8
BLACK
6
CONTINUOUS
10
132.825
20
-92.381
11
132.906
21
-92.1573
0
LINE
8
BLACK
6
CONTINUOUS
10
132.906
20
-92.1573
11
133.059
21
-91.9749
0
LINE
8
BLACK
6
CONTINUOUS
10
133.059
20
-91.9749
11
133.266
21
-91.8559
0
LINE
8
BLACK
6
CONTINUOUS
10
133.266
20
-91.8559
11
133.441
21
-91.825
0
LINE
8
BLACK
6
CONTINUOUS
10
133.441
20
-91.825
11
133.559
21
-91.825
0
LINE
8
BLACK
6
CONTINUOUS
10
133.559
20
-91.825
11
133.734
21
-91.8559
0
LINE
8
BLACK
6
CONTINUOUS
10
133.734
20
-91.8559
11
133.941
21
-91.9749
0
LINE
8
BLACK
6
CONTINUOUS
10
133.941
20
-91.9749
11
134.094
21
-92.1573
0
LINE
8
BLACK
6
CONTINUOUS
10
134.094
20
-92.1573
11
134.109
21
-92.2
0
LINE
8
BLACK
6
CONTINUOUS
10
134.109
20
-92.2
11
137.228
21
-92.2
0
LINE
8
BLACK
6
CONTINUOUS
10
137.228
20
-92.2
11
137.313
21
-91.9684
0
LINE
8
BLACK
6
CONTINUOUS
10
137.313
20
-91.9684
11
137.505
21
-91.7388
0
LINE
8
BLACK
6
CONTINUOUS
10
137.505
20
-91.7388
11
137.765
21
-91.5889
0
LINE
8
BLACK
6
CONTINUOUS
10
137.765
20
-91.5889
11
137.986
21
-91.55
0
LINE
8
BLACK
6
CONTINUOUS
10
137.986
20
-91.55
11
138.134
21
-91.55
0
LINE
8
BLACK
6
CONTINUOUS
10
138.134
20
-91.55
11
138.355
21
-91.5889
0
LINE
8
BLACK
6
CONTINUOUS
10
138.355
20
-91.5889
11
138.615
21
-91.7388
0
LINE
8
BLACK
6
CONTINUOUS
10
138.615
20
-91.7388
11
138.807
21
-91.9684
0
LINE
8
BLACK
6
CONTINUOUS
10
138.807
20
-91.9684
11
138.91
21
-92.2501
0
LINE
8
BLACK
6
CONTINUOUS
10
138.91
20
-92.2501
11
138.91
21
-92.5499
0
LINE
8
BLACK
6
CONTINUOUS
10
138.91
20
-92.5499
11
138.807
21
-92.8316
0
LINE
8
BLACK
6
CONTINUOUS
10
138.807
20
-92.8316
11
138.615
21
-93.0612
0
LINE
8
BLACK
6
CONTINUOUS
10
138.615
20
-93.0612
11
138.355
21
-93.2111
0
LINE
8
BLACK
6
CONTINUOUS
10
138.355
20
-93.2111
11
138.134
21
-93.25
0
LINE
8
BLACK
6
CONTINUOUS
10
138.134
20
-93.25
11
137.986
21
-93.25
0
LINE
8
BLACK
6
CONTINUOUS
10
137.986
20
-93.25
11
137.765
21
-93.2111
0
LINE
8
BLACK
6
CONTINUOUS
10
137.765
20
-93.2111
11
137.505
21
-93.0612
0
LINE
8
BLACK
6
CONTINUOUS
10
137.505
20
-93.0612
11
137.313
21
-92.8316
0
LINE
8
BLACK
6
CONTINUOUS
10
137.313
20
-92.8316
11
137.228
21
-92.6
0
LINE
8
BLACK
6
CONTINUOUS
10
137.228
20
-92.6
11
134.175
21
-92.6
0
LINE
8
BLACK
6
CONTINUOUS
10
134.175
20
-92.6
11
134.175
21
-92.619
0
LINE
8
BLACK
6
CONTINUOUS
10
134.175
20
-92.619
11
134.094
21
-92.8427
0
LINE
8
BLACK
6
CONTINUOUS
10
134.094
20
-92.8427
11
133.941
21
-93.0251
0
LINE
8
BLACK
6
CONTINUOUS
10
133.941
20
-93.0251
11
133.734
21
-93.1441
0
LINE
8
BLACK
6
CONTINUOUS
10
133.734
20
-93.1441
11
133.559
21
-93.175
0
LINE
8
BLACK
6
CONTINUOUS
10
133.559
20
-93.175
11
133.441
21
-93.175
0
LINE
8
BLACK
6
CONTINUOUS
10
133.441
20
-93.175
11
133.266
21
-93.1441
0
LINE
8
BLACK
6
CONTINUOUS
10
133.266
20
-93.1441
11
133.185
21
-93.0977
0
LINE
8
BLACK
6
CONTINUOUS
10
133.185
20
-93.0977
11
128.898
21
-97.3852
0
LINE
8
BLACK
6
CONTINUOUS
10
128.898
20
-97.3852
11
128.881
21
-97.4056
0
LINE
8
BLACK
6
CONTINUOUS
10
128.881
20
-97.4056
11
128.858
21
-97.4188
0
LINE
8
BLACK
6
CONTINUOUS
10
128.858
20
-97.4188
11
128.836
21
-97.4341
0
LINE
8
BLACK
6
CONTINUOUS
10
128.836
20
-97.4341
11
128.827
21
-97.4364
0
LINE
8
BLACK
6
CONTINUOUS
10
128.827
20
-97.4364
11
128.819
21
-97.4408
0
LINE
8
BLACK
6
CONTINUOUS
10
128.819
20
-97.4408
11
128.793
21
-97.4454
0
LINE
8
BLACK
6
CONTINUOUS
10
128.793
20
-97.4454
11
128.768
21
-97.4523
0
LINE
8
BLACK
6
CONTINUOUS
10
128.768
20
-97.4523
11
128.741
21
-97.45
0
LINE
8
BLACK
6
CONTINUOUS
10
128.741
20
-97.45
11
123.933
21
-97.45
0
LINE
8
BLACK
6
CONTINUOUS
10
123.933
20
-97.45
11
115.348
21
-106.035
0
LINE
8
BLACK
6
CONTINUOUS
10
115.348
20
-106.035
11
115.331
21
-106.056
0
LINE
8
BLACK
6
CONTINUOUS
10
115.331
20
-106.056
11
115.308
21
-106.069
0
LINE
8
BLACK
6
CONTINUOUS
10
115.308
20
-106.069
11
115.286
21
-106.084
0
LINE
8
BLACK
6
CONTINUOUS
10
115.286
20
-106.084
11
115.277
21
-106.086
0
LINE
8
BLACK
6
CONTINUOUS
10
115.277
20
-106.086
11
115.269
21
-106.091
0
LINE
8
BLACK
6
CONTINUOUS
10
115.269
20
-106.091
11
115.243
21
-106.095
0
LINE
8
BLACK
6
CONTINUOUS
10
115.243
20
-106.095
11
115.218
21
-106.102
0
LINE
8
BLACK
6
CONTINUOUS
10
115.218
20
-106.102
11
115.191
21
-106.1
0
LINE
8
BLACK
6
CONTINUOUS
10
115.191
20
-106.1
11
114.7
21
-106.1
0
LINE
8
BLACK
6
CONTINUOUS
10
114.7
20
-106.1
11
114.7
21
-110.491
0
LINE
8
BLACK
6
CONTINUOUS
10
114.7
20
-110.491
11
114.702
21
-110.518
0
LINE
8
BLACK
6
CONTINUOUS
10
114.702
20
-110.518
11
114.695
21
-110.543
0
LINE
8
BLACK
6
CONTINUOUS
10
114.695
20
-110.543
11
114.691
21
-110.569
0
LINE
8
BLACK
6
CONTINUOUS
10
114.691
20
-110.569
11
114.686
21
-110.577
0
LINE
8
BLACK
6
CONTINUOUS
10
114.686
20
-110.577
11
114.684
21
-110.586
0
LINE
8
BLACK
6
CONTINUOUS
10
114.684
20
-110.586
11
114.669
21
-110.608
0
LINE
8
BLACK
6
CONTINUOUS
10
114.669
20
-110.608
11
114.656
21
-110.631
0
LINE
8
BLACK
6
CONTINUOUS
10
114.656
20
-110.631
11
114.635
21
-110.648
0
LINE
8
BLACK
6
CONTINUOUS
10
114.635
20
-110.648
11
114.4
21
-110.883
0
LINE
8
BLACK
6
CONTINUOUS
10
114.4
20
-110.883
11
114.4
21
-117.154
0
LINE
8
BLACK
6
CONTINUOUS
10
114.4
20
-117.154
11
114.461
21
-117.189
0
LINE
8
BLACK
6
CONTINUOUS
10
114.461
20
-117.189
11
114.552
21
-117.297
0
LINE
8
BLACK
6
CONTINUOUS
10
114.552
20
-117.297
11
114.6
21
-117.429
0
LINE
8
BLACK
6
CONTINUOUS
10
114.6
20
-117.429
11
114.6
21
-117.571
0
LINE
8
BLACK
6
CONTINUOUS
10
114.6
20
-117.571
11
114.552
21
-117.703
0
LINE
8
BLACK
6
CONTINUOUS
10
114.552
20
-117.703
11
114.461
21
-117.811
0
LINE
8
BLACK
6
CONTINUOUS
10
114.461
20
-117.811
11
114.339
21
-117.882
0
LINE
8
BLACK
6
CONTINUOUS
10
114.339
20
-117.882
11
114.2
21
-117.906
0
LINE
8
BLACK
6
CONTINUOUS
10
114.2
20
-117.906
11
114.061
21
-117.882
0
LINE
8
BLACK
6
CONTINUOUS
10
114.061
20
-117.882
11
113.939
21
-117.811
0
LINE
8
BLACK
6
CONTINUOUS
10
113.939
20
-117.811
11
113.848
21
-117.703
0
LINE
8
BLACK
6
CONTINUOUS
10
113.848
20
-117.703
11
113.8
21
-117.571
0
LINE
8
BLACK
6
CONTINUOUS
10
113.8
20
-117.571
11
113.8
21
-117.429
0
LINE
8
BLACK
6
CONTINUOUS
10
113.8
20
-117.429
11
113.848
21
-117.297
0
LINE
8
BLACK
6
CONTINUOUS
10
113.848
20
-117.297
11
113.939
21
-117.189
0
LINE
8
BLACK
6
CONTINUOUS
10
113.939
20
-117.189
11
114
21
-117.154
0
LINE
8
BLACK
6
CONTINUOUS
10
114
20
-117.154
11
114
21
-110.809
0
LINE
8
BLACK
6
CONTINUOUS
10
114
20
-110.809
11
113.998
21
-110.782
0
LINE
8
BLACK
6
CONTINUOUS
10
113.998
20
-110.782
11
114.005
21
-110.757
0
LINE
8
BLACK
6
CONTINUOUS
10
114.005
20
-110.757
11
114.009
21
-110.731
0
LINE
8
BLACK
6
CONTINUOUS
10
114.009
20
-110.731
11
114.014
21
-110.723
0
LINE
8
BLACK
6
CONTINUOUS
10
114.014
20
-110.723
11
114.016
21
-110.714
0
LINE
8
BLACK
6
CONTINUOUS
10
114.016
20
-110.714
11
114.031
21
-110.692
0
LINE
8
BLACK
6
CONTINUOUS
10
114.031
20
-110.692
11
114.044
21
-110.669
0
LINE
8
BLACK
6
CONTINUOUS
10
114.044
20
-110.669
11
114.065
21
-110.652
0
LINE
8
BLACK
6
CONTINUOUS
10
114.065
20
-110.652
11
114.3
21
-110.417
0
LINE
8
BLACK
6
CONTINUOUS
10
114.3
20
-110.417
11
114.3
21
-106.1
0
LINE
8
BLACK
6
CONTINUOUS
10
114.3
20
-106.1
11
109.309
21
-106.1
0
LINE
8
BLACK
6
CONTINUOUS
10
109.309
20
-106.1
11
109.282
21
-106.102
0
LINE
8
BLACK
6
CONTINUOUS
10
109.282
20
-106.102
11
109.257
21
-106.095
0
LINE
8
BLACK
6
CONTINUOUS
10
109.257
20
-106.095
11
109.231
21
-106.091
0
LINE
8
BLACK
6
CONTINUOUS
10
109.231
20
-106.091
11
109.223
21
-106.086
0
LINE
8
BLACK
6
CONTINUOUS
10
109.223
20
-106.086
11
109.214
21
-106.084
0
LINE
8
BLACK
6
CONTINUOUS
10
109.214
20
-106.084
11
109.192
21
-106.069
0
LINE
8
BLACK
6
CONTINUOUS
10
109.192
20
-106.069
11
109.169
21
-106.056
0
LINE
8
BLACK
6
CONTINUOUS
10
109.169
20
-106.056
11
109.152
21
-106.035
0
LINE
8
BLACK
6
CONTINUOUS
10
109.152
20
-106.035
11
105.992
21
-102.875
0
LINE
8
BLACK
6
CONTINUOUS
10
105.992
20
-102.875
11
105.45
21
-102.875
0
LINE
8
BLACK
6
CONTINUOUS
10
105.45
20
-102.875
11
105.45
21
-102.125
0
LINE
8
BLACK
6
CONTINUOUS
10
105.45
20
-102.125
11
105.85
21
-102.125
0
LINE
8
BLACK
6
CONTINUOUS
10
105.85
20
-102.125
11
105.85
21
-100.25
0
LINE
8
BLACK
6
CONTINUOUS
10
105.85
20
-100.25
11
105.675
21
-100.25
0
LINE
8
BLACK
6
CONTINUOUS
10
105.675
20
-100.25
11
105.675
21
-100.85
0
LINE
8
BLACK
6
CONTINUOUS
10
105.675
20
-100.85
11
105.125
21
-100.85
0
LINE
8
BLACK
6
CONTINUOUS
10
105.125
20
-100.85
11
105.125
21
-99.25
0
LINE
8
BLACK
6
CONTINUOUS
10
105.125
20
-99.25
11
105.675
21
-99.25
0
LINE
8
BLACK
6
CONTINUOUS
10
105.675
20
-99.25
11
105.675
21
-99.85
0
LINE
8
BLACK
6
CONTINUOUS
10
105.675
20
-99.85
11
105.925
21
-99.85
0
LINE
8
BLACK
6
CONTINUOUS
10
105.925
20
-99.85
11
105.925
21
-99.25
0
LINE
8
BLACK
6
CONTINUOUS
10
105.925
20
-99.25
11
106
21
-99.25
0
LINE
8
BLACK
6
CONTINUOUS
10
106
20
-99.25
11
106
21
-98.8587
0
LINE
8
BLACK
6
CONTINUOUS
10
106
20
-98.8587
11
105.998
21
-98.8323
0
LINE
8
BLACK
6
CONTINUOUS
10
105.998
20
-98.8323
11
106.005
21
-98.8067
0
LINE
8
BLACK
6
CONTINUOUS
10
106.005
20
-98.8067
11
106.009
21
-98.7805
0
LINE
8
BLACK
6
CONTINUOUS
10
106.009
20
-98.7805
11
106.014
21
-98.7728
0
LINE
8
BLACK
6
CONTINUOUS
10
106.014
20
-98.7728
11
106.016
21
-98.7642
0
LINE
8
BLACK
6
CONTINUOUS
10
106.016
20
-98.7642
11
106.031
21
-98.7424
0
LINE
8
BLACK
6
CONTINUOUS
10
106.031
20
-98.7424
11
106.044
21
-98.7195
0
LINE
8
BLACK
6
CONTINUOUS
10
106.044
20
-98.7195
11
106.065
21
-98.7024
0
LINE
8
BLACK
6
CONTINUOUS
10
106.065
20
-98.7024
11
106.1
21
-98.6671
0
LINE
8
BLACK
6
CONTINUOUS
10
106.1
20
-98.6671
11
106.1
21
-96.3587
0
LINE
8
BLACK
6
CONTINUOUS
10
106.1
20
-96.3587
11
106.098
21
-96.3323
0
LINE
8
BLACK
6
CONTINUOUS
10
106.098
20
-96.3323
11
106.105
21
-96.3066
0
LINE
8
BLACK
6
CONTINUOUS
10
106.105
20
-96.3066
11
106.109
21
-96.2805
0
LINE
8
BLACK
6
CONTINUOUS
10
106.109
20
-96.2805
11
106.114
21
-96.2728
0
LINE
8
BLACK
6
CONTINUOUS
10
106.114
20
-96.2728
11
106.116
21
-96.2641
0
LINE
8
BLACK
6
CONTINUOUS
10
106.116
20
-96.2641
11
106.131
21
-96.2424
0
LINE
8
BLACK
6
CONTINUOUS
10
106.131
20
-96.2424
11
106.144
21
-96.2194
0
LINE
8
BLACK
6
CONTINUOUS
10
106.144
20
-96.2194
11
106.165
21
-96.2024
0
LINE
8
BLACK
6
CONTINUOUS
10
106.165
20
-96.2024
11
106.302
21
-96.0648
0
LINE
8
BLACK
6
CONTINUOUS
10
106.302
20
-96.0648
11
106.319
21
-96.0444
0
LINE
8
BLACK
6
CONTINUOUS
10
106.319
20
-96.0444
11
106.342
21
-96.0312
0
LINE
8
BLACK
6
CONTINUOUS
10
106.342
20
-96.0312
11
106.364
21
-96.0159
0
LINE
8
BLACK
6
CONTINUOUS
10
106.364
20
-96.0159
11
106.373
21
-96.0136
0
LINE
8
BLACK
6
CONTINUOUS
10
106.373
20
-96.0136
11
106.381
21
-96.0092
0
LINE
8
BLACK
6
CONTINUOUS
10
106.381
20
-96.0092
11
106.407
21
-96.0046
0
LINE
8
BLACK
6
CONTINUOUS
10
106.407
20
-96.0046
11
106.432
21
-95.9977
0
LINE
8
BLACK
6
CONTINUOUS
10
106.432
20
-95.9977
11
106.459
21
-96
0
LINE
8
BLACK
6
CONTINUOUS
10
106.459
20
-96
11
106.85
21
-96
0
LINE
8
BLACK
6
CONTINUOUS
10
106.85
20
-96
11
106.85
21
-95.925
0
LINE
8
BLACK
6
CONTINUOUS
10
106.85
20
-95.925
11
108.45
21
-95.925
0
LINE
8
BLACK
6
CONTINUOUS
10
108.45
20
-95.925
11
108.45
21
-96.475
0
LINE
8
BLACK
6
CONTINUOUS
10
108.45
20
-96.475
11
106.85
21
-96.475
0
LINE
8
BLACK
6
CONTINUOUS
10
106.85
20
-96.475
11
106.85
21
-96.4
0
LINE
8
BLACK
6
CONTINUOUS
10
106.85
20
-96.4
11
106.533
21
-96.4
0
LINE
8
BLACK
6
CONTINUOUS
10
106.533
20
-96.4
11
106.5
21
-96.4328
0
LINE
8
BLACK
6
CONTINUOUS
10
106.5
20
-96.4328
11
106.5
21
-98.7412
0
LINE
8
BLACK
6
CONTINUOUS
10
106.5
20
-98.7412
11
106.502
21
-98.7677
0
LINE
8
BLACK
6
CONTINUOUS
10
106.502
20
-98.7677
11
106.495
21
-98.7933
0
LINE
8
BLACK
6
CONTINUOUS
10
106.495
20
-98.7933
11
106.491
21
-98.8194
0
LINE
8
BLACK
6
CONTINUOUS
10
106.491
20
-98.8194
11
106.486
21
-98.8272
0
LINE
8
BLACK
6
CONTINUOUS
10
106.486
20
-98.8272
11
106.484
21
-98.8358
0
LINE
8
BLACK
6
CONTINUOUS
10
106.484
20
-98.8358
11
106.469
21
-98.8575
0
LINE
8
BLACK
6
CONTINUOUS
10
106.469
20
-98.8575
11
106.456
21
-98.8805
0
LINE
8
BLACK
6
CONTINUOUS
10
106.456
20
-98.8805
11
106.435
21
-98.8976
0
LINE
8
BLACK
6
CONTINUOUS
10
106.435
20
-98.8976
11
106.4
21
-98.9328
0
LINE
8
BLACK
6
CONTINUOUS
10
106.4
20
-98.9328
11
106.4
21
-99.25
0
LINE
8
BLACK
6
CONTINUOUS
10
106.4
20
-99.25
11
106.475
21
-99.25
0
LINE
8
BLACK
6
CONTINUOUS
10
106.475
20
-99.25
11
106.475
21
-100.85
0
LINE
8
BLACK
6
CONTINUOUS
10
106.475
20
-100.85
11
106.25
21
-100.85
0
LINE
8
BLACK
6
CONTINUOUS
10
106.25
20
-100.85
11
106.25
21
-102.125
0
LINE
8
BLACK
6
CONTINUOUS
10
106.25
20
-102.125
11
106.65
21
-102.125
0
LINE
8
BLACK
6
CONTINUOUS
10
106.65
20
-102.125
11
106.65
21
-102.875
0
LINE
8
BLACK
6
CONTINUOUS
10
106.65
20
-102.875
11
106.558
21
-102.875
0
LINE
8
BLACK
6
CONTINUOUS
10
106.558
20
-102.875
11
109.383
21
-105.7
0
LINE
8
BLACK
6
CONTINUOUS
10
109.383
20
-105.7
11
115.117
21
-105.7
0
LINE
8
BLACK
6
CONTINUOUS
10
115.117
20
-105.7
11
123.702
21
-97.1148
0
LINE
8
BLACK
6
CONTINUOUS
10
109.75
20
-117.45
11
108.05
21
-117.45
0
LINE
8
BLACK
6
CONTINUOUS
10
108.05
20
-117.45
11
108.05
21
-115.75
0
LINE
8
BLACK
6
CONTINUOUS
10
108.05
20
-115.75
11
109.75
21
-115.75
0
LINE
8
BLACK
6
CONTINUOUS
10
109.75
20
-115.75
11
109.75
21
-117.45
0
LINE
8
BLACK
6
CONTINUOUS
10
101.45
20
-117.45
11
99.75
21
-117.45
0
LINE
8
BLACK
6
CONTINUOUS
10
99.75
20
-117.45
11
99.75
21
-115.75
0
LINE
8
BLACK
6
CONTINUOUS
10
99.75
20
-115.75
11
101.45
21
-115.75
0
LINE
8
BLACK
6
CONTINUOUS
10
101.45
20
-115.75
11
101.45
21
-117.45
0
LINE
8
BLACK
6
CONTINUOUS
10
112.039
20
-113.418
11
112.161
21
-113.489
0
LINE
8
BLACK
6
CONTINUOUS
10
112.161
20
-113.489
11
112.252
21
-113.597
0
LINE
8
BLACK
6
CONTINUOUS
10
112.252
20
-113.597
11
112.3
21
-113.729
0
LINE
8
BLACK
6
CONTINUOUS
10
112.3
20
-113.729
11
112.3
21
-113.871
0
LINE
8
BLACK
6
CONTINUOUS
10
112.3
20
-113.871
11
112.252
21
-114.003
0
LINE
8
BLACK
6
CONTINUOUS
10
112.252
20
-114.003
11
112.161
21
-114.111
0
LINE
8
BLACK
6
CONTINUOUS
10
112.161
20
-114.111
11
112.039
21
-114.182
0
LINE
8
BLACK
6
CONTINUOUS
10
112.039
20
-114.182
11
111.9
21
-114.206
0
LINE
8
BLACK
6
CONTINUOUS
10
111.9
20
-114.206
11
111.761
21
-114.182
0
LINE
8
BLACK
6
CONTINUOUS
10
111.761
20
-114.182
11
111.639
21
-114.111
0
LINE
8
BLACK
6
CONTINUOUS
10
111.639
20
-114.111
11
111.548
21
-114.003
0
LINE
8
BLACK
6
CONTINUOUS
10
111.548
20
-114.003
11
111.5
21
-113.871
0
LINE
8
BLACK
6
CONTINUOUS
10
111.5
20
-113.871
11
111.5
21
-113.729
0
LINE
8
BLACK
6
CONTINUOUS
10
111.5
20
-113.729
11
111.548
21
-113.597
0
LINE
8
BLACK
6
CONTINUOUS
10
111.548
20
-113.597
11
111.639
21
-113.489
0
LINE
8
BLACK
6
CONTINUOUS
10
111.639
20
-113.489
11
111.761
21
-113.418
0
LINE
8
BLACK
6
CONTINUOUS
10
111.761
20
-113.418
11
111.9
21
-113.394
0
LINE
8
BLACK
6
CONTINUOUS
10
111.9
20
-113.394
11
112.039
21
-113.418
0
LINE
8
BLACK
6
CONTINUOUS
10
105.551
20
-111.61
11
105.949
21
-111.839
0
LINE
8
BLACK
6
CONTINUOUS
10
105.949
20
-111.839
11
106.243
21
-112.19
0
LINE
8
BLACK
6
CONTINUOUS
10
106.243
20
-112.19
11
106.4
21
-112.621
0
LINE
8
BLACK
6
CONTINUOUS
10
106.4
20
-112.621
11
106.4
21
-113.079
0
LINE
8
BLACK
6
CONTINUOUS
10
106.4
20
-113.079
11
106.243
21
-113.51
0
LINE
8
BLACK
6
CONTINUOUS
10
106.243
20
-113.51
11
105.949
21
-113.861
0
LINE
8
BLACK
6
CONTINUOUS
10
105.949
20
-113.861
11
105.551
21
-114.09
0
LINE
8
BLACK
6
CONTINUOUS
10
105.551
20
-114.09
11
105.1
21
-114.17
0
LINE
8
BLACK
6
CONTINUOUS
10
105.1
20
-114.17
11
104.649
21
-114.09
0
LINE
8
BLACK
6
CONTINUOUS
10
104.649
20
-114.09
11
104.251
21
-113.861
0
LINE
8
BLACK
6
CONTINUOUS
10
104.251
20
-113.861
11
103.957
21
-113.51
0
LINE
8
BLACK
6
CONTINUOUS
10
103.957
20
-113.51
11
103.8
21
-113.079
0
LINE
8
BLACK
6
CONTINUOUS
10
103.8
20
-113.079
11
103.8
21
-112.621
0
LINE
8
BLACK
6
CONTINUOUS
10
103.8
20
-112.621
11
103.957
21
-112.19
0
LINE
8
BLACK
6
CONTINUOUS
10
103.957
20
-112.19
11
104.251
21
-111.839
0
LINE
8
BLACK
6
CONTINUOUS
10
104.251
20
-111.839
11
104.649
21
-111.61
0
LINE
8
BLACK
6
CONTINUOUS
10
104.649
20
-111.61
11
105.1
21
-111.53
0
LINE
8
BLACK
6
CONTINUOUS
10
105.1
20
-111.53
11
105.551
21
-111.61
0
LINE
8
BLACK
6
CONTINUOUS
10
153.651
20
-111.61
11
154.049
21
-111.839
0
LINE
8
BLACK
6
CONTINUOUS
10
154.049
20
-111.839
11
154.343
21
-112.19
0
LINE
8
BLACK
6
CONTINUOUS
10
154.343
20
-112.19
11
154.5
21
-112.621
0
LINE
8
BLACK
6
CONTINUOUS
10
154.5
20
-112.621
11
154.5
21
-113.079
0
LINE
8
BLACK
6
CONTINUOUS
10
154.5
20
-113.079
11
154.343
21
-113.51
0
LINE
8
BLACK
6
CONTINUOUS
10
154.343
20
-113.51
11
154.049
21
-113.861
0
LINE
8
BLACK
6
CONTINUOUS
10
154.049
20
-113.861
11
153.651
21
-114.09
0
LINE
8
BLACK
6
CONTINUOUS
10
153.651
20
-114.09
11
153.2
21
-114.17
0
LINE
8
BLACK
6
CONTINUOUS
10
153.2
20
-114.17
11
152.749
21
-114.09
0
LINE
8
BLACK
6
CONTINUOUS
10
152.749
20
-114.09
11
152.351
21
-113.861
0
LINE
8
BLACK
6
CONTINUOUS
10
152.351
20
-113.861
11
152.057
21
-113.51
0
LINE
8
BLACK
6
CONTINUOUS
10
152.057
20
-113.51
11
151.9
21
-113.079
0
LINE
8
BLACK
6
CONTINUOUS
10
151.9
20
-113.079
11
151.9
21
-112.621
0
LINE
8
BLACK
6
CONTINUOUS
10
151.9
20
-112.621
11
152.057
21
-112.19
0
LINE
8
BLACK
6
CONTINUOUS
10
152.057
20
-112.19
11
152.351
21
-111.839
0
LINE
8
BLACK
6
CONTINUOUS
10
152.351
20
-111.839
11
152.749
21
-111.61
0
LINE
8
BLACK
6
CONTINUOUS
10
152.749
20
-111.61
11
153.2
21
-111.53
0
LINE
8
BLACK
6
CONTINUOUS
10
153.2
20
-111.53
11
153.651
21
-111.61
0
LINE
8
BLACK
6
CONTINUOUS
10
100.269
20
-112.111
11
100.506
21
-112.247
0
LINE
8
BLACK
6
CONTINUOUS
10
100.506
20
-112.247
11
100.682
21
-112.457
0
LINE
8
BLACK
6
CONTINUOUS
10
100.682
20
-112.457
11
100.775
21
-112.713
0
LINE
8
BLACK
6
CONTINUOUS
10
100.775
20
-112.713
11
100.775
21
-112.987
0
LINE
8
BLACK
6
CONTINUOUS
10
100.775
20
-112.987
11
100.682
21
-113.243
0
LINE
8
BLACK
6
CONTINUOUS
10
100.682
20
-113.243
11
100.506
21
-113.453
0
LINE
8
BLACK
6
CONTINUOUS
10
100.506
20
-113.453
11
100.269
21
-113.589
0
LINE
8
BLACK
6
CONTINUOUS
10
100.269
20
-113.589
11
100
21
-113.637
0
LINE
8
BLACK
6
CONTINUOUS
10
100
20
-113.637
11
99.7308
21
-113.589
0
LINE
8
BLACK
6
CONTINUOUS
10
99.7308
20
-113.589
11
99.4942
21
-113.453
0
LINE
8
BLACK
6
CONTINUOUS
10
99.4942
20
-113.453
11
99.3185
21
-113.243
0
LINE
8
BLACK
6
CONTINUOUS
10
99.3185
20
-113.243
11
99.225
21
-112.987
0
LINE
8
BLACK
6
CONTINUOUS
10
99.225
20
-112.987
11
99.225
21
-112.713
0
LINE
8
BLACK
6
CONTINUOUS
10
99.225
20
-112.713
11
99.3185
21
-112.457
0
LINE
8
BLACK
6
CONTINUOUS
10
99.3185
20
-112.457
11
99.4942
21
-112.247
0
LINE
8
BLACK
6
CONTINUOUS
10
99.4942
20
-112.247
11
99.7308
21
-112.111
0
LINE
8
BLACK
6
CONTINUOUS
10
99.7308
20
-112.111
11
100
21
-112.063
0
LINE
8
BLACK
6
CONTINUOUS
10
100
20
-112.063
11
100.269
21
-112.111
0
LINE
8
BLACK
6
CONTINUOUS
10
110.469
20
-112.111
11
110.706
21
-112.247
0
LINE
8
BLACK
6
CONTINUOUS
10
110.706
20
-112.247
11
110.882
21
-112.457
0
LINE
8
BLACK
6
CONTINUOUS
10
110.882
20
-112.457
11
110.975
21
-112.713
0
LINE
8
BLACK
6
CONTINUOUS
10
110.975
20
-112.713
11
110.975
21
-112.987
0
LINE
8
BLACK
6
CONTINUOUS
10
110.975
20
-112.987
11
110.882
21
-113.243
0
LINE
8
BLACK
6
CONTINUOUS
10
110.882
20
-113.243
11
110.706
21
-113.453
0
LINE
8
BLACK
6
CONTINUOUS
10
110.706
20
-113.453
11
110.469
21
-113.589
0
LINE
8
BLACK
6
CONTINUOUS
10
110.469
20
-113.589
11
110.2
21
-113.637
0
LINE
8
BLACK
6
CONTINUOUS
10
110.2
20
-113.637
11
109.931
21
-113.589
0
LINE
8
BLACK
6
CONTINUOUS
10
109.931
20
-113.589
11
109.694
21
-113.453
0
LINE
8
BLACK
6
CONTINUOUS
10
109.694
20
-113.453
11
109.518
21
-113.243
0
LINE
8
BLACK
6
CONTINUOUS
10
109.518
20
-113.243
11
109.425
21
-112.987
0
LINE
8
BLACK
6
CONTINUOUS
10
109.425
20
-112.987
11
109.425
21
-112.713
0
LINE
8
BLACK
6
CONTINUOUS
10
109.425
20
-112.713
11
109.518
21
-112.457
0
LINE
8
BLACK
6
CONTINUOUS
10
109.518
20
-112.457
11
109.694
21
-112.247
0
LINE
8
BLACK
6
CONTINUOUS
10
109.694
20
-112.247
11
109.931
21
-112.111
0
LINE
8
BLACK
6
CONTINUOUS
10
109.931
20
-112.111
11
110.2
21
-112.063
0
LINE
8
BLACK
6
CONTINUOUS
10
110.2
20
-112.063
11
110.469
21
-112.111
0
LINE
8
BLACK
6
CONTINUOUS
10
148.369
20
-112.111
11
148.606
21
-112.247
0
LINE
8
BLACK
6
CONTINUOUS
10
148.606
20
-112.247
11
148.782
21
-112.457
0
LINE
8
BLACK
6
CONTINUOUS
10
148.782
20
-112.457
11
148.875
21
-112.713
0
LINE
8
BLACK
6
CONTINUOUS
10
148.875
20
-112.713
11
148.875
21
-112.987
0
LINE
8
BLACK
6
CONTINUOUS
10
148.875
20
-112.987
11
148.782
21
-113.243
0
LINE
8
BLACK
6
CONTINUOUS
10
148.782
20
-113.243
11
148.606
21
-113.453
0
LINE
8
BLACK
6
CONTINUOUS
10
148.606
20
-113.453
11
148.369
21
-113.589
0
LINE
8
BLACK
6
CONTINUOUS
10
148.369
20
-113.589
11
148.1
21
-113.637
0
LINE
8
BLACK
6
CONTINUOUS
10
148.1
20
-113.637
11
147.831
21
-113.589
0
LINE
8
BLACK
6
CONTINUOUS
10
147.831
20
-113.589
11
147.594
21
-113.453
0
LINE
8
BLACK
6
CONTINUOUS
10
147.594
20
-113.453
11
147.418
21
-113.243
0
LINE
8
BLACK
6
CONTINUOUS
10
147.418
20
-113.243
11
147.325
21
-112.987
0
LINE
8
BLACK
6
CONTINUOUS
10
147.325
20
-112.987
11
147.325
21
-112.713
0
LINE
8
BLACK
6
CONTINUOUS
10
147.325
20
-112.713
11
147.418
21
-112.457
0
LINE
8
BLACK
6
CONTINUOUS
10
147.418
20
-112.457
11
147.594
21
-112.247
0
LINE
8
BLACK
6
CONTINUOUS
10
147.594
20
-112.247
11
147.831
21
-112.111
0
LINE
8
BLACK
6
CONTINUOUS
10
147.831
20
-112.111
11
148.1
21
-112.063
0
LINE
8
BLACK
6
CONTINUOUS
10
148.1
20
-112.063
11
148.369
21
-112.111
0
LINE
8
BLACK
6
CONTINUOUS
10
158.569
20
-112.111
11
158.806
21
-112.247
0
LINE
8
BLACK
6
CONTINUOUS
10
158.806
20
-112.247
11
158.982
21
-112.457
0
LINE
8
BLACK
6
CONTINUOUS
10
158.982
20
-112.457
11
159.075
21
-112.713
0
LINE
8
BLACK
6
CONTINUOUS
10
159.075
20
-112.713
11
159.075
21
-112.987
0
LINE
8
BLACK
6
CONTINUOUS
10
159.075
20
-112.987
11
158.982
21
-113.243
0
LINE
8
BLACK
6
CONTINUOUS
10
158.982
20
-113.243
11
158.806
21
-113.453
0
LINE
8
BLACK
6
CONTINUOUS
10
158.806
20
-113.453
11
158.569
21
-113.589
0
LINE
8
BLACK
6
CONTINUOUS
10
158.569
20
-113.589
11
158.3
21
-113.637
0
LINE
8
BLACK
6
CONTINUOUS
10
158.3
20
-113.637
11
158.031
21
-113.589
0
LINE
8
BLACK
6
CONTINUOUS
10
158.031
20
-113.589
11
157.794
21
-113.453
0
LINE
8
BLACK
6
CONTINUOUS
10
157.794
20
-113.453
11
157.618
21
-113.243
0
LINE
8
BLACK
6
CONTINUOUS
10
157.618
20
-113.243
11
157.525
21
-112.987
0
LINE
8
BLACK
6
CONTINUOUS
10
157.525
20
-112.987
11
157.525
21
-112.713
0
LINE
8
BLACK
6
CONTINUOUS
10
157.525
20
-112.713
11
157.618
21
-112.457
0
LINE
8
BLACK
6
CONTINUOUS
10
157.618
20
-112.457
11
157.794
21
-112.247
0
LINE
8
BLACK
6
CONTINUOUS
10
157.794
20
-112.247
11
158.031
21
-112.111
0
LINE
8
BLACK
6
CONTINUOUS
10
158.031
20
-112.111
11
158.3
21
-112.063
0
LINE
8
BLACK
6
CONTINUOUS
10
158.3
20
-112.063
11
158.569
21
-112.111
0
LINE
8
BLACK
6
CONTINUOUS
10
107.539
20
-112.118
11
107.661
21
-112.189
0
LINE
8
BLACK
6
CONTINUOUS
10
107.661
20
-112.189
11
107.752
21
-112.297
0
LINE
8
BLACK
6
CONTINUOUS
10
107.752
20
-112.297
11
107.8
21
-112.429
0
LINE
8
BLACK
6
CONTINUOUS
10
107.8
20
-112.429
11
107.8
21
-112.571
0
LINE
8
BLACK
6
CONTINUOUS
10
107.8
20
-112.571
11
107.752
21
-112.703
0
LINE
8
BLACK
6
CONTINUOUS
10
107.752
20
-112.703
11
107.661
21
-112.811
0
LINE
8
BLACK
6
CONTINUOUS
10
107.661
20
-112.811
11
107.539
21
-112.882
0
LINE
8
BLACK
6
CONTINUOUS
10
107.539
20
-112.882
11
107.4
21
-112.906
0
LINE
8
BLACK
6
CONTINUOUS
10
107.4
20
-112.906
11
107.261
21
-112.882
0
LINE
8
BLACK
6
CONTINUOUS
10
107.261
20
-112.882
11
107.139
21
-112.811
0
LINE
8
BLACK
6
CONTINUOUS
10
107.139
20
-112.811
11
107.048
21
-112.703
0
LINE
8
BLACK
6
CONTINUOUS
10
107.048
20
-112.703
11
107
21
-112.571
0
LINE
8
BLACK
6
CONTINUOUS
10
107
20
-112.571
11
107
21
-112.429
0
LINE
8
BLACK
6
CONTINUOUS
10
107
20
-112.429
11
107.048
21
-112.297
0
LINE
8
BLACK
6
CONTINUOUS
10
107.048
20
-112.297
11
107.139
21
-112.189
0
LINE
8
BLACK
6
CONTINUOUS
10
107.139
20
-112.189
11
107.261
21
-112.118
0
LINE
8
BLACK
6
CONTINUOUS
10
107.261
20
-112.118
11
107.4
21
-112.094
0
LINE
8
BLACK
6
CONTINUOUS
10
107.4
20
-112.094
11
107.539
21
-112.118
0
LINE
8
BLACK
6
CONTINUOUS
10
158.623
20
-108.189
11
158.897
21
-108.348
0
LINE
8
BLACK
6
CONTINUOUS
10
158.897
20
-108.348
11
159.101
21
-108.591
0
LINE
8
BLACK
6
CONTINUOUS
10
159.101
20
-108.591
11
159.21
21
-108.889
0
LINE
8
BLACK
6
CONTINUOUS
10
159.21
20
-108.889
11
159.21
21
-109.207
0
LINE
8
BLACK
6
CONTINUOUS
10
159.21
20
-109.207
11
159.101
21
-109.505
0
LINE
8
BLACK
6
CONTINUOUS
10
159.101
20
-109.505
11
158.897
21
-109.748
0
LINE
8
BLACK
6
CONTINUOUS
10
158.897
20
-109.748
11
158.623
21
-109.907
0
LINE
8
BLACK
6
CONTINUOUS
10
158.623
20
-109.907
11
158.31
21
-109.962
0
LINE
8
BLACK
6
CONTINUOUS
10
158.31
20
-109.962
11
157.997
21
-109.907
0
LINE
8
BLACK
6
CONTINUOUS
10
157.997
20
-109.907
11
157.723
21
-109.748
0
LINE
8
BLACK
6
CONTINUOUS
10
157.723
20
-109.748
11
157.519
21
-109.505
0
LINE
8
BLACK
6
CONTINUOUS
10
157.519
20
-109.505
11
157.41
21
-109.207
0
LINE
8
BLACK
6
CONTINUOUS
10
157.41
20
-109.207
11
157.41
21
-108.889
0
LINE
8
BLACK
6
CONTINUOUS
10
157.41
20
-108.889
11
157.519
21
-108.591
0
LINE
8
BLACK
6
CONTINUOUS
10
157.519
20
-108.591
11
157.723
21
-108.348
0
LINE
8
BLACK
6
CONTINUOUS
10
157.723
20
-108.348
11
157.997
21
-108.189
0
LINE
8
BLACK
6
CONTINUOUS
10
157.997
20
-108.189
11
158.31
21
-108.134
0
LINE
8
BLACK
6
CONTINUOUS
10
158.31
20
-108.134
11
158.623
21
-108.189
0
LINE
8
BLACK
6
CONTINUOUS
10
110.523
20
-108.189
11
110.797
21
-108.348
0
LINE
8
BLACK
6
CONTINUOUS
10
110.797
20
-108.348
11
111.001
21
-108.591
0
LINE
8
BLACK
6
CONTINUOUS
10
111.001
20
-108.591
11
111.11
21
-108.889
0
LINE
8
BLACK
6
CONTINUOUS
10
111.11
20
-108.889
11
111.11
21
-109.207
0
LINE
8
BLACK
6
CONTINUOUS
10
111.11
20
-109.207
11
111.001
21
-109.505
0
LINE
8
BLACK
6
CONTINUOUS
10
111.001
20
-109.505
11
110.797
21
-109.748
0
LINE
8
BLACK
6
CONTINUOUS
10
110.797
20
-109.748
11
110.523
21
-109.907
0
LINE
8
BLACK
6
CONTINUOUS
10
110.523
20
-109.907
11
110.21
21
-109.962
0
LINE
8
BLACK
6
CONTINUOUS
10
110.21
20
-109.962
11
109.897
21
-109.907
0
LINE
8
BLACK
6
CONTINUOUS
10
109.897
20
-109.907
11
109.623
21
-109.748
0
LINE
8
BLACK
6
CONTINUOUS
10
109.623
20
-109.748
11
109.419
21
-109.505
0
LINE
8
BLACK
6
CONTINUOUS
10
109.419
20
-109.505
11
109.31
21
-109.207
0
LINE
8
BLACK
6
CONTINUOUS
10
109.31
20
-109.207
11
109.31
21
-108.889
0
LINE
8
BLACK
6
CONTINUOUS
10
109.31
20
-108.889
11
109.419
21
-108.591
0
LINE
8
BLACK
6
CONTINUOUS
10
109.419
20
-108.591
11
109.623
21
-108.348
0
LINE
8
BLACK
6
CONTINUOUS
10
109.623
20
-108.348
11
109.897
21
-108.189
0
LINE
8
BLACK
6
CONTINUOUS
10
109.897
20
-108.189
11
110.21
21
-108.134
0
LINE
8
BLACK
6
CONTINUOUS
10
110.21
20
-108.134
11
110.523
21
-108.189
0
LINE
8
BLACK
6
CONTINUOUS
10
106.139
20
-103.718
11
106.261
21
-103.789
0
LINE
8
BLACK
6
CONTINUOUS
10
106.261
20
-103.789
11
106.352
21
-103.897
0
LINE
8
BLACK
6
CONTINUOUS
10
106.352
20
-103.897
11
106.4
21
-104.029
0
LINE
8
BLACK
6
CONTINUOUS
10
106.4
20
-104.029
11
106.4
21
-104.171
0
LINE
8
BLACK
6
CONTINUOUS
10
106.4
20
-104.171
11
106.352
21
-104.303
0
LINE
8
BLACK
6
CONTINUOUS
10
106.352
20
-104.303
11
106.261
21
-104.411
0
LINE
8
BLACK
6
CONTINUOUS
10
106.261
20
-104.411
11
106.139
21
-104.482
0
LINE
8
BLACK
6
CONTINUOUS
10
106.139
20
-104.482
11
106
21
-104.506
0
LINE
8
BLACK
6
CONTINUOUS
10
106
20
-104.506
11
105.861
21
-104.482
0
LINE
8
BLACK
6
CONTINUOUS
10
105.861
20
-104.482
11
105.85
21
-104.475
0
LINE
8
BLACK
6
CONTINUOUS
10
105.85
20
-104.475
11
105.85
21
-108.441
0
LINE
8
BLACK
6
CONTINUOUS
10
105.85
20
-108.441
11
105.852
21
-108.461
0
LINE
8
BLACK
6
CONTINUOUS
10
105.852
20
-108.461
11
105.847
21
-108.48
0
LINE
8
BLACK
6
CONTINUOUS
10
105.847
20
-108.48
11
105.843
21
-108.5
0
LINE
8
BLACK
6
CONTINUOUS
10
105.843
20
-108.5
11
105.84
21
-108.506
0
LINE
8
BLACK
6
CONTINUOUS
10
105.84
20
-108.506
11
105.838
21
-108.512
0
LINE
8
BLACK
6
CONTINUOUS
10
105.838
20
-108.512
11
105.832
21
-108.521
0
LINE
8
BLACK
6
CONTINUOUS
10
105.832
20
-108.521
11
105.891
21
-108.591
0
LINE
8
BLACK
6
CONTINUOUS
10
105.891
20
-108.591
11
106
21
-108.889
0
LINE
8
BLACK
6
CONTINUOUS
10
106
20
-108.889
11
106
21
-109.207
0
LINE
8
BLACK
6
CONTINUOUS
10
106
20
-109.207
11
105.891
21
-109.505
0
LINE
8
BLACK
6
CONTINUOUS
10
105.891
20
-109.505
11
105.687
21
-109.748
0
LINE
8
BLACK
6
CONTINUOUS
10
105.687
20
-109.748
11
105.413
21
-109.907
0
LINE
8
BLACK
6
CONTINUOUS
10
105.413
20
-109.907
11
105.1
21
-109.962
0
LINE
8
BLACK
6
CONTINUOUS
10
105.1
20
-109.962
11
104.787
21
-109.907
0
LINE
8
BLACK
6
CONTINUOUS
10
104.787
20
-109.907
11
104.513
21
-109.748
0
LINE
8
BLACK
6
CONTINUOUS
10
104.513
20
-109.748
11
104.309
21
-109.505
0
LINE
8
BLACK
6
CONTINUOUS
10
104.309
20
-109.505
11
104.2
21
-109.207
0
LINE
8
BLACK
6
CONTINUOUS
10
104.2
20
-109.207
11
104.2
21
-108.889
0
LINE
8
BLACK
6
CONTINUOUS
10
104.2
20
-108.889
11
104.309
21
-108.591
0
LINE
8
BLACK
6
CONTINUOUS
10
104.309
20
-108.591
11
104.513
21
-108.348
0
LINE
8
BLACK
6
CONTINUOUS
10
104.513
20
-108.348
11
104.787
21
-108.189
0
LINE
8
BLACK
6
CONTINUOUS
10
104.787
20
-108.189
11
105.1
21
-108.134
0
LINE
8
BLACK
6
CONTINUOUS
10
105.1
20
-108.134
11
105.413
21
-108.189
0
LINE
8
BLACK
6
CONTINUOUS
10
105.413
20
-108.189
11
105.55
21
-108.269
0
LINE
8
BLACK
6
CONTINUOUS
10
105.55
20
-108.269
11
105.55
21
-104.407
0
LINE
8
BLACK
6
CONTINUOUS
10
105.55
20
-104.407
11
105.548
21
-104.387
0
LINE
8
BLACK
6
CONTINUOUS
10
105.548
20
-104.387
11
105.553
21
-104.368
0
LINE
8
BLACK
6
CONTINUOUS
10
105.553
20
-104.368
11
105.557
21
-104.348
0
LINE
8
BLACK
6
CONTINUOUS
10
105.557
20
-104.348
11
105.56
21
-104.342
0
LINE
8
BLACK
6
CONTINUOUS
10
105.56
20
-104.342
11
105.562
21
-104.336
0
LINE
8
BLACK
6
CONTINUOUS
10
105.562
20
-104.336
11
105.573
21
-104.319
0
LINE
8
BLACK
6
CONTINUOUS
10
105.573
20
-104.319
11
105.583
21
-104.302
0
LINE
8
BLACK
6
CONTINUOUS
10
105.583
20
-104.302
11
105.599
21
-104.289
0
LINE
8
BLACK
6
CONTINUOUS
10
105.599
20
-104.289
11
105.631
21
-104.257
0
LINE
8
BLACK
6
CONTINUOUS
10
105.631
20
-104.257
11
105.6
21
-104.171
0
LINE
8
BLACK
6
CONTINUOUS
10
105.6
20
-104.171
11
105.6
21
-104.029
0
LINE
8
BLACK
6
CONTINUOUS
10
105.6
20
-104.029
11
105.648
21
-103.897
0
LINE
8
BLACK
6
CONTINUOUS
10
105.648
20
-103.897
11
105.739
21
-103.789
0
LINE
8
BLACK
6
CONTINUOUS
10
105.739
20
-103.789
11
105.861
21
-103.718
0
LINE
8
BLACK
6
CONTINUOUS
10
105.861
20
-103.718
11
106
21
-103.694
0
LINE
8
BLACK
6
CONTINUOUS
10
106
20
-103.694
11
106.139
21
-103.718
0
LINE
8
BLACK
6
CONTINUOUS
10
100.353
20
-108.189
11
100.627
21
-108.348
0
LINE
8
BLACK
6
CONTINUOUS
10
100.627
20
-108.348
11
100.831
21
-108.591
0
LINE
8
BLACK
6
CONTINUOUS
10
100.831
20
-108.591
11
100.94
21
-108.889
0
LINE
8
BLACK
6
CONTINUOUS
10
100.94
20
-108.889
11
100.94
21
-109.207
0
LINE
8
BLACK
6
CONTINUOUS
10
100.94
20
-109.207
11
100.831
21
-109.505
0
LINE
8
BLACK
6
CONTINUOUS
10
100.831
20
-109.505
11
100.627
21
-109.748
0
LINE
8
BLACK
6
CONTINUOUS
10
100.627
20
-109.748
11
100.353
21
-109.907
0
LINE
8
BLACK
6
CONTINUOUS
10
100.353
20
-109.907
11
100.04
21
-109.962
0
LINE
8
BLACK
6
CONTINUOUS
10
100.04
20
-109.962
11
99.7274
21
-109.907
0
LINE
8
BLACK
6
CONTINUOUS
10
99.7274
20
-109.907
11
99.4526
21
-109.748
0
LINE
8
BLACK
6
CONTINUOUS
10
99.4526
20
-109.748
11
99.2486
21
-109.505
0
LINE
8
BLACK
6
CONTINUOUS
10
99.2486
20
-109.505
11
99.14
21
-109.207
0
LINE
8
BLACK
6
CONTINUOUS
10
99.14
20
-109.207
11
99.14
21
-108.889
0
LINE
8
BLACK
6
CONTINUOUS
10
99.14
20
-108.889
11
99.2486
21
-108.591
0
LINE
8
BLACK
6
CONTINUOUS
10
99.2486
20
-108.591
11
99.4526
21
-108.348
0
LINE
8
BLACK
6
CONTINUOUS
10
99.4526
20
-108.348
11
99.7274
21
-108.189
0
LINE
8
BLACK
6
CONTINUOUS
10
99.7274
20
-108.189
11
100.04
21
-108.134
0
LINE
8
BLACK
6
CONTINUOUS
10
100.04
20
-108.134
11
100.353
21
-108.189
0
LINE
8
BLACK
6
CONTINUOUS
10
148.453
20
-108.189
11
148.727
21
-108.348
0
LINE
8
BLACK
6
CONTINUOUS
10
148.727
20
-108.348
11
148.931
21
-108.591
0
LINE
8
BLACK
6
CONTINUOUS
10
148.931
20
-108.591
11
149.04
21
-108.889
0
LINE
8
BLACK
6
CONTINUOUS
10
149.04
20
-108.889
11
149.04
21
-109.207
0
LINE
8
BLACK
6
CONTINUOUS
10
149.04
20
-109.207
11
148.931
21
-109.505
0
LINE
8
BLACK
6
CONTINUOUS
10
148.931
20
-109.505
11
148.727
21
-109.748
0
LINE
8
BLACK
6
CONTINUOUS
10
148.727
20
-109.748
11
148.453
21
-109.907
0
LINE
8
BLACK
6
CONTINUOUS
10
148.453
20
-109.907
11
148.14
21
-109.962
0
LINE
8
BLACK
6
CONTINUOUS
10
148.14
20
-109.962
11
147.827
21
-109.907
0
LINE
8
BLACK
6
CONTINUOUS
10
147.827
20
-109.907
11
147.553
21
-109.748
0
LINE
8
BLACK
6
CONTINUOUS
10
147.553
20
-109.748
11
147.349
21
-109.505
0
LINE
8
BLACK
6
CONTINUOUS
10
147.349
20
-109.505
11
147.24
21
-109.207
0
LINE
8
BLACK
6
CONTINUOUS
10
147.24
20
-109.207
11
147.24
21
-108.889
0
LINE
8
BLACK
6
CONTINUOUS
10
147.24
20
-108.889
11
147.349
21
-108.591
0
LINE
8
BLACK
6
CONTINUOUS
10
147.349
20
-108.591
11
147.553
21
-108.348
0
LINE
8
BLACK
6
CONTINUOUS
10
147.553
20
-108.348
11
147.827
21
-108.189
0
LINE
8
BLACK
6
CONTINUOUS
10
147.827
20
-108.189
11
148.14
21
-108.134
0
LINE
8
BLACK
6
CONTINUOUS
10
148.14
20
-108.134
11
148.453
21
-108.189
0
LINE
8
BLACK
6
CONTINUOUS
10
140.438
20
-94.8483
11
140.457
21
-94.8534
0
LINE
8
BLACK
6
CONTINUOUS
10
140.457
20
-94.8534
11
140.477
21
-94.8569
0
LINE
8
BLACK
6
CONTINUOUS
10
140.477
20
-94.8569
11
140.483
21
-94.8602
0
LINE
8
BLACK
6
CONTINUOUS
10
140.483
20
-94.8602
11
140.489
21
-94.862
0
LINE
8
BLACK
6
CONTINUOUS
10
140.489
20
-94.862
11
140.505
21
-94.8734
0
LINE
8
BLACK
6
CONTINUOUS
10
140.505
20
-94.8734
11
140.523
21
-94.8833
0
LINE
8
BLACK
6
CONTINUOUS
10
140.523
20
-94.8833
11
140.535
21
-94.8986
0
LINE
8
BLACK
6
CONTINUOUS
10
140.535
20
-94.8986
11
153.301
21
-107.665
0
LINE
8
BLACK
6
CONTINUOUS
10
153.301
20
-107.665
11
153.317
21
-107.677
0
LINE
8
BLACK
6
CONTINUOUS
10
153.317
20
-107.677
11
153.327
21
-107.695
0
LINE
8
BLACK
6
CONTINUOUS
10
153.327
20
-107.695
11
153.338
21
-107.711
0
LINE
8
BLACK
6
CONTINUOUS
10
153.338
20
-107.711
11
153.34
21
-107.717
0
LINE
8
BLACK
6
CONTINUOUS
10
153.34
20
-107.717
11
153.343
21
-107.723
0
LINE
8
BLACK
6
CONTINUOUS
10
153.343
20
-107.723
11
153.347
21
-107.743
0
LINE
8
BLACK
6
CONTINUOUS
10
153.347
20
-107.743
11
153.352
21
-107.762
0
LINE
8
BLACK
6
CONTINUOUS
10
153.352
20
-107.762
11
153.35
21
-107.782
0
LINE
8
BLACK
6
CONTINUOUS
10
153.35
20
-107.782
11
153.35
21
-108.161
0
LINE
8
BLACK
6
CONTINUOUS
10
153.35
20
-108.161
11
153.513
21
-108.189
0
LINE
8
BLACK
6
CONTINUOUS
10
153.513
20
-108.189
11
153.787
21
-108.348
0
LINE
8
BLACK
6
CONTINUOUS
10
153.787
20
-108.348
11
153.991
21
-108.591
0
LINE
8
BLACK
6
CONTINUOUS
10
153.991
20
-108.591
11
154.1
21
-108.889
0
LINE
8
BLACK
6
CONTINUOUS
10
154.1
20
-108.889
11
154.1
21
-109.207
0
LINE
8
BLACK
6
CONTINUOUS
10
154.1
20
-109.207
11
153.991
21
-109.505
0
LINE
8
BLACK
6
CONTINUOUS
10
153.991
20
-109.505
11
153.787
21
-109.748
0
LINE
8
BLACK
6
CONTINUOUS
10
153.787
20
-109.748
11
153.513
21
-109.907
0
LINE
8
BLACK
6
CONTINUOUS
10
153.513
20
-109.907
11
153.2
21
-109.962
0
LINE
8
BLACK
6
CONTINUOUS
10
153.2
20
-109.962
11
152.887
21
-109.907
0
LINE
8
BLACK
6
CONTINUOUS
10
152.887
20
-109.907
11
152.613
21
-109.748
0
LINE
8
BLACK
6
CONTINUOUS
10
152.613
20
-109.748
11
152.409
21
-109.505
0
LINE
8
BLACK
6
CONTINUOUS
10
152.409
20
-109.505
11
152.3
21
-109.207
0
LINE
8
BLACK
6
CONTINUOUS
10
152.3
20
-109.207
11
152.3
21
-108.889
0
LINE
8
BLACK
6
CONTINUOUS
10
152.3
20
-108.889
11
152.409
21
-108.591
0
LINE
8
BLACK
6
CONTINUOUS
10
152.409
20
-108.591
11
152.613
21
-108.348
0
LINE
8
BLACK
6
CONTINUOUS
10
152.613
20
-108.348
11
152.887
21
-108.189
0
LINE
8
BLACK
6
CONTINUOUS
10
152.887
20
-108.189
11
153.05
21
-108.161
0
LINE
8
BLACK
6
CONTINUOUS
10
153.05
20
-108.161
11
153.05
21
-107.837
0
LINE
8
BLACK
6
CONTINUOUS
10
153.05
20
-107.837
11
140.363
21
-95.15
0
LINE
8
BLACK
6
CONTINUOUS
10
140.363
20
-95.15
11
139.971
21
-95.15
0
LINE
8
BLACK
6
CONTINUOUS
10
139.971
20
-95.15
11
139.952
21
-95.2031
0
LINE
8
BLACK
6
CONTINUOUS
10
139.952
20
-95.2031
11
139.861
21
-95.3111
0
LINE
8
BLACK
6
CONTINUOUS
10
139.861
20
-95.3111
11
139.739
21
-95.3817
0
LINE
8
BLACK
6
CONTINUOUS
10
139.739
20
-95.3817
11
139.6
21
-95.4062
0
LINE
8
BLACK
6
CONTINUOUS
10
139.6
20
-95.4062
11
139.461
21
-95.3817
0
LINE
8
BLACK
6
CONTINUOUS
10
139.461
20
-95.3817
11
139.339
21
-95.3111
0
LINE
8
BLACK
6
CONTINUOUS
10
139.339
20
-95.3111
11
139.248
21
-95.2031
0
LINE
8
BLACK
6
CONTINUOUS
10
139.248
20
-95.2031
11
139.2
21
-95.0705
0
LINE
8
BLACK
6
CONTINUOUS
10
139.2
20
-95.0705
11
139.2
21
-94.9295
0
LINE
8
BLACK
6
CONTINUOUS
10
139.2
20
-94.9295
11
139.248
21
-94.7969
0
LINE
8
BLACK
6
CONTINUOUS
10
139.248
20
-94.7969
11
139.339
21
-94.6889
0
LINE
8
BLACK
6
CONTINUOUS
10
139.339
20
-94.6889
11
139.461
21
-94.6183
0
LINE
8
BLACK
6
CONTINUOUS
10
139.461
20
-94.6183
11
139.6
21
-94.5938
0
LINE
8
BLACK
6
CONTINUOUS
10
139.6
20
-94.5938
11
139.739
21
-94.6183
0
LINE
8
BLACK
6
CONTINUOUS
10
139.739
20
-94.6183
11
139.861
21
-94.6889
0
LINE
8
BLACK
6
CONTINUOUS
10
139.861
20
-94.6889
11
139.952
21
-94.7969
0
LINE
8
BLACK
6
CONTINUOUS
10
139.952
20
-94.7969
11
139.971
21
-94.85
0
LINE
8
BLACK
6
CONTINUOUS
10
139.971
20
-94.85
11
140.418
21
-94.85
0
LINE
8
BLACK
6
CONTINUOUS
10
140.418
20
-94.85
11
140.438
21
-94.8483
0
LINE
8
BLACK
6
CONTINUOUS
10
107.639
20
-108.418
11
107.761
21
-108.489
0
LINE
8
BLACK
6
CONTINUOUS
10
107.761
20
-108.489
11
107.852
21
-108.597
0
LINE
8
BLACK
6
CONTINUOUS
10
107.852
20
-108.597
11
107.9
21
-108.729
0
LINE
8
BLACK
6
CONTINUOUS
10
107.9
20
-108.729
11
107.9
21
-108.871
0
LINE
8
BLACK
6
CONTINUOUS
10
107.9
20
-108.871
11
107.852
21
-109.003
0
LINE
8
BLACK
6
CONTINUOUS
10
107.852
20
-109.003
11
107.761
21
-109.111
0
LINE
8
BLACK
6
CONTINUOUS
10
107.761
20
-109.111
11
107.639
21
-109.182
0
LINE
8
BLACK
6
CONTINUOUS
10
107.639
20
-109.182
11
107.5
21
-109.206
0
LINE
8
BLACK
6
CONTINUOUS
10
107.5
20
-109.206
11
107.361
21
-109.182
0
LINE
8
BLACK
6
CONTINUOUS
10
107.361
20
-109.182
11
107.239
21
-109.111
0
LINE
8
BLACK
6
CONTINUOUS
10
107.239
20
-109.111
11
107.148
21
-109.003
0
LINE
8
BLACK
6
CONTINUOUS
10
107.148
20
-109.003
11
107.1
21
-108.871
0
LINE
8
BLACK
6
CONTINUOUS
10
107.1
20
-108.871
11
107.1
21
-108.729
0
LINE
8
BLACK
6
CONTINUOUS
10
107.1
20
-108.729
11
107.148
21
-108.597
0
LINE
8
BLACK
6
CONTINUOUS
10
107.148
20
-108.597
11
107.239
21
-108.489
0
LINE
8
BLACK
6
CONTINUOUS
10
107.239
20
-108.489
11
107.361
21
-108.418
0
LINE
8
BLACK
6
CONTINUOUS
10
107.361
20
-108.418
11
107.5
21
-108.394
0
LINE
8
BLACK
6
CONTINUOUS
10
107.5
20
-108.394
11
107.639
21
-108.418
0
LINE
8
BLACK
6
CONTINUOUS
10
113.439
20
-106.718
11
113.561
21
-106.789
0
LINE
8
BLACK
6
CONTINUOUS
10
113.561
20
-106.789
11
113.652
21
-106.897
0
LINE
8
BLACK
6
CONTINUOUS
10
113.652
20
-106.897
11
113.7
21
-107.029
0
LINE
8
BLACK
6
CONTINUOUS
10
113.7
20
-107.029
11
113.7
21
-107.171
0
LINE
8
BLACK
6
CONTINUOUS
10
113.7
20
-107.171
11
113.652
21
-107.303
0
LINE
8
BLACK
6
CONTINUOUS
10
113.652
20
-107.303
11
113.561
21
-107.411
0
LINE
8
BLACK
6
CONTINUOUS
10
113.561
20
-107.411
11
113.439
21
-107.482
0
LINE
8
BLACK
6
CONTINUOUS
10
113.439
20
-107.482
11
113.3
21
-107.506
0
LINE
8
BLACK
6
CONTINUOUS
10
113.3
20
-107.506
11
113.161
21
-107.482
0
LINE
8
BLACK
6
CONTINUOUS
10
113.161
20
-107.482
11
113.039
21
-107.411
0
LINE
8
BLACK
6
CONTINUOUS
10
113.039
20
-107.411
11
112.948
21
-107.303
0
LINE
8
BLACK
6
CONTINUOUS
10
112.948
20
-107.303
11
112.9
21
-107.171
0
LINE
8
BLACK
6
CONTINUOUS
10
112.9
20
-107.171
11
112.9
21
-107.029
0
LINE
8
BLACK
6
CONTINUOUS
10
112.9
20
-107.029
11
112.948
21
-106.897
0
LINE
8
BLACK
6
CONTINUOUS
10
112.948
20
-106.897
11
113.039
21
-106.789
0
LINE
8
BLACK
6
CONTINUOUS
10
113.039
20
-106.789
11
113.161
21
-106.718
0
LINE
8
BLACK
6
CONTINUOUS
10
113.161
20
-106.718
11
113.3
21
-106.694
0
LINE
8
BLACK
6
CONTINUOUS
10
113.3
20
-106.694
11
113.439
21
-106.718
0
LINE
8
BLACK
6
CONTINUOUS
10
104.739
20
-106.118
11
104.861
21
-106.189
0
LINE
8
BLACK
6
CONTINUOUS
10
104.861
20
-106.189
11
104.952
21
-106.297
0
LINE
8
BLACK
6
CONTINUOUS
10
104.952
20
-106.297
11
105
21
-106.429
0
LINE
8
BLACK
6
CONTINUOUS
10
105
20
-106.429
11
105
21
-106.571
0
LINE
8
BLACK
6
CONTINUOUS
10
105
20
-106.571
11
104.952
21
-106.703
0
LINE
8
BLACK
6
CONTINUOUS
10
104.952
20
-106.703
11
104.861
21
-106.811
0
LINE
8
BLACK
6
CONTINUOUS
10
104.861
20
-106.811
11
104.739
21
-106.882
0
LINE
8
BLACK
6
CONTINUOUS
10
104.739
20
-106.882
11
104.6
21
-106.906
0
LINE
8
BLACK
6
CONTINUOUS
10
104.6
20
-106.906
11
104.461
21
-106.882
0
LINE
8
BLACK
6
CONTINUOUS
10
104.461
20
-106.882
11
104.339
21
-106.811
0
LINE
8
BLACK
6
CONTINUOUS
10
104.339
20
-106.811
11
104.248
21
-106.703
0
LINE
8
BLACK
6
CONTINUOUS
10
104.248
20
-106.703
11
104.2
21
-106.571
0
LINE
8
BLACK
6
CONTINUOUS
10
104.2
20
-106.571
11
104.2
21
-106.429
0
LINE
8
BLACK
6
CONTINUOUS
10
104.2
20
-106.429
11
104.248
21
-106.297
0
LINE
8
BLACK
6
CONTINUOUS
10
104.248
20
-106.297
11
104.339
21
-106.189
0
LINE
8
BLACK
6
CONTINUOUS
10
104.339
20
-106.189
11
104.461
21
-106.118
0
LINE
8
BLACK
6
CONTINUOUS
10
104.461
20
-106.118
11
104.6
21
-106.094
0
LINE
8
BLACK
6
CONTINUOUS
10
104.6
20
-106.094
11
104.739
21
-106.118
0
LINE
8
BLACK
6
CONTINUOUS
10
103.275
20
-100.85
11
103.2
21
-100.85
0
LINE
8
BLACK
6
CONTINUOUS
10
103.2
20
-100.85
11
103.2
21
-101.616
0
LINE
8
BLACK
6
CONTINUOUS
10
103.2
20
-101.616
11
103.202
21
-101.643
0
LINE
8
BLACK
6
CONTINUOUS
10
103.202
20
-101.643
11
103.195
21
-101.668
0
LINE
8
BLACK
6
CONTINUOUS
10
103.195
20
-101.668
11
103.191
21
-101.694
0
LINE
8
BLACK
6
CONTINUOUS
10
103.191
20
-101.694
11
103.186
21
-101.702
0
LINE
8
BLACK
6
CONTINUOUS
10
103.186
20
-101.702
11
103.184
21
-101.711
0
LINE
8
BLACK
6
CONTINUOUS
10
103.184
20
-101.711
11
103.169
21
-101.733
0
LINE
8
BLACK
6
CONTINUOUS
10
103.169
20
-101.733
11
103.156
21
-101.756
0
LINE
8
BLACK
6
CONTINUOUS
10
103.156
20
-101.756
11
103.135
21
-101.773
0
LINE
8
BLACK
6
CONTINUOUS
10
103.135
20
-101.773
11
101.479
21
-103.429
0
LINE
8
BLACK
6
CONTINUOUS
10
101.479
20
-103.429
11
101.479
21
-103.429
0
LINE
8
BLACK
6
CONTINUOUS
10
101.479
20
-103.429
11
100.223
21
-104.685
0
LINE
8
BLACK
6
CONTINUOUS
10
100.223
20
-104.685
11
100.206
21
-104.706
0
LINE
8
BLACK
6
CONTINUOUS
10
100.206
20
-104.706
11
100.183
21
-104.719
0
LINE
8
BLACK
6
CONTINUOUS
10
100.183
20
-104.719
11
100.161
21
-104.734
0
LINE
8
BLACK
6
CONTINUOUS
10
100.161
20
-104.734
11
100.152
21
-104.736
0
LINE
8
BLACK
6
CONTINUOUS
10
100.152
20
-104.736
11
100.144
21
-104.741
0
LINE
8
BLACK
6
CONTINUOUS
10
100.144
20
-104.741
11
100.118
21
-104.745
0
LINE
8
BLACK
6
CONTINUOUS
10
100.118
20
-104.745
11
100.093
21
-104.752
0
LINE
8
BLACK
6
CONTINUOUS
10
100.093
20
-104.752
11
100.066
21
-104.75
0
LINE
8
BLACK
6
CONTINUOUS
10
100.066
20
-104.75
11
99.675
21
-104.75
0
LINE
8
BLACK
6
CONTINUOUS
10
99.675
20
-104.75
11
99.675
21
-105.15
0
LINE
8
BLACK
6
CONTINUOUS
10
99.675
20
-105.15
11
98.925
21
-105.15
0
LINE
8
BLACK
6
CONTINUOUS
10
98.925
20
-105.15
11
98.925
21
-103.95
0
LINE
8
BLACK
6
CONTINUOUS
10
98.925
20
-103.95
11
99.675
21
-103.95
0
LINE
8
BLACK
6
CONTINUOUS
10
99.675
20
-103.95
11
99.675
21
-104.35
0
LINE
8
BLACK
6
CONTINUOUS
10
99.675
20
-104.35
11
99.9922
21
-104.35
0
LINE
8
BLACK
6
CONTINUOUS
10
99.9922
20
-104.35
11
101.196
21
-103.146
0
LINE
8
BLACK
6
CONTINUOUS
10
101.196
20
-103.146
11
101.196
21
-103.146
0
LINE
8
BLACK
6
CONTINUOUS
10
101.196
20
-103.146
11
102.8
21
-101.542
0
LINE
8
BLACK
6
CONTINUOUS
10
102.8
20
-101.542
11
102.8
21
-100.85
0
LINE
8
BLACK
6
CONTINUOUS
10
102.8
20
-100.85
11
102.725
21
-100.85
0
LINE
8
BLACK
6
CONTINUOUS
10
102.725
20
-100.85
11
102.725
21
-99.25
0
LINE
8
BLACK
6
CONTINUOUS
10
102.725
20
-99.25
11
103.275
21
-99.25
0
LINE
8
BLACK
6
CONTINUOUS
10
103.275
20
-99.25
11
103.275
21
-100.85
0
LINE
8
BLACK
6
CONTINUOUS
10
156.182
20
-101.75
11
156.518
21
-101.944
0
LINE
8
BLACK
6
CONTINUOUS
10
156.518
20
-101.944
11
156.767
21
-102.242
0
LINE
8
BLACK
6
CONTINUOUS
10
156.767
20
-102.242
11
156.9
21
-102.606
0
LINE
8
BLACK
6
CONTINUOUS
10
156.9
20
-102.606
11
156.9
21
-102.994
0
LINE
8
BLACK
6
CONTINUOUS
10
156.9
20
-102.994
11
156.767
21
-103.358
0
LINE
8
BLACK
6
CONTINUOUS
10
156.767
20
-103.358
11
156.518
21
-103.656
0
LINE
8
BLACK
6
CONTINUOUS
10
156.518
20
-103.656
11
156.182
21
-103.85
0
LINE
8
BLACK
6
CONTINUOUS
10
156.182
20
-103.85
11
155.8
21
-103.917
0
LINE
8
BLACK
6
CONTINUOUS
10
155.8
20
-103.917
11
155.418
21
-103.85
0
LINE
8
BLACK
6
CONTINUOUS
10
155.418
20
-103.85
11
155.082
21
-103.656
0
LINE
8
BLACK
6
CONTINUOUS
10
155.082
20
-103.656
11
154.833
21
-103.358
0
LINE
8
BLACK
6
CONTINUOUS
10
154.833
20
-103.358
11
154.7
21
-102.994
0
LINE
8
BLACK
6
CONTINUOUS
10
154.7
20
-102.994
11
154.7
21
-102.606
0
LINE
8
BLACK
6
CONTINUOUS
10
154.7
20
-102.606
11
154.833
21
-102.242
0
LINE
8
BLACK
6
CONTINUOUS
10
154.833
20
-102.242
11
155.082
21
-101.944
0
LINE
8
BLACK
6
CONTINUOUS
10
155.082
20
-101.944
11
155.418
21
-101.75
0
LINE
8
BLACK
6
CONTINUOUS
10
155.418
20
-101.75
11
155.8
21
-101.683
0
LINE
8
BLACK
6
CONTINUOUS
10
155.8
20
-101.683
11
156.182
21
-101.75
0
LINE
8
BLACK
6
CONTINUOUS
10
115.256
20
-100.273
11
115.744
21
-100.555
0
LINE
8
BLACK
6
CONTINUOUS
10
115.744
20
-100.555
11
116.107
21
-100.988
0
LINE
8
BLACK
6
CONTINUOUS
10
116.107
20
-100.988
11
116.3
21
-101.518
0
LINE
8
BLACK
6
CONTINUOUS
10
116.3
20
-101.518
11
116.3
21
-102.082
0
LINE
8
BLACK
6
CONTINUOUS
10
116.3
20
-102.082
11
116.107
21
-102.612
0
LINE
8
BLACK
6
CONTINUOUS
10
116.107
20
-102.612
11
115.744
21
-103.045
0
LINE
8
BLACK
6
CONTINUOUS
10
115.744
20
-103.045
11
115.256
21
-103.327
0
LINE
8
BLACK
6
CONTINUOUS
10
115.256
20
-103.327
11
114.7
21
-103.425
0
LINE
8
BLACK
6
CONTINUOUS
10
114.7
20
-103.425
11
114.144
21
-103.327
0
LINE
8
BLACK
6
CONTINUOUS
10
114.144
20
-103.327
11
113.656
21
-103.045
0
LINE
8
BLACK
6
CONTINUOUS
10
113.656
20
-103.045
11
113.293
21
-102.612
0
LINE
8
BLACK
6
CONTINUOUS
10
113.293
20
-102.612
11
113.1
21
-102.082
0
LINE
8
BLACK
6
CONTINUOUS
10
113.1
20
-102.082
11
113.1
21
-101.518
0
LINE
8
BLACK
6
CONTINUOUS
10
113.1
20
-101.518
11
113.293
21
-100.988
0
LINE
8
BLACK
6
CONTINUOUS
10
113.293
20
-100.988
11
113.656
21
-100.555
0
LINE
8
BLACK
6
CONTINUOUS
10
113.656
20
-100.555
11
114.144
21
-100.273
0
LINE
8
BLACK
6
CONTINUOUS
10
114.144
20
-100.273
11
114.7
21
-100.175
0
LINE
8
BLACK
6
CONTINUOUS
10
114.7
20
-100.175
11
115.256
21
-100.273
0
LINE
8
BLACK
6
CONTINUOUS
10
144.156
20
-100.273
11
144.644
21
-100.555
0
LINE
8
BLACK
6
CONTINUOUS
10
144.644
20
-100.555
11
145.007
21
-100.988
0
LINE
8
BLACK
6
CONTINUOUS
10
145.007
20
-100.988
11
145.2
21
-101.518
0
LINE
8
BLACK
6
CONTINUOUS
10
145.2
20
-101.518
11
145.2
21
-102.082
0
LINE
8
BLACK
6
CONTINUOUS
10
145.2
20
-102.082
11
145.007
21
-102.612
0
LINE
8
BLACK
6
CONTINUOUS
10
145.007
20
-102.612
11
144.644
21
-103.045
0
LINE
8
BLACK
6
CONTINUOUS
10
144.644
20
-103.045
11
144.156
21
-103.327
0
LINE
8
BLACK
6
CONTINUOUS
10
144.156
20
-103.327
11
143.6
21
-103.425
0
LINE
8
BLACK
6
CONTINUOUS
10
143.6
20
-103.425
11
143.044
21
-103.327
0
LINE
8
BLACK
6
CONTINUOUS
10
143.044
20
-103.327
11
142.556
21
-103.045
0
LINE
8
BLACK
6
CONTINUOUS
10
142.556
20
-103.045
11
142.193
21
-102.612
0
LINE
8
BLACK
6
CONTINUOUS
10
142.193
20
-102.612
11
142
21
-102.082
0
LINE
8
BLACK
6
CONTINUOUS
10
142
20
-102.082
11
142
21
-101.518
0
LINE
8
BLACK
6
CONTINUOUS
10
142
20
-101.518
11
142.193
21
-100.988
0
LINE
8
BLACK
6
CONTINUOUS
10
142.193
20
-100.988
11
142.556
21
-100.555
0
LINE
8
BLACK
6
CONTINUOUS
10
142.556
20
-100.555
11
143.044
21
-100.273
0
LINE
8
BLACK
6
CONTINUOUS
10
143.044
20
-100.273
11
143.6
21
-100.175
0
LINE
8
BLACK
6
CONTINUOUS
10
143.6
20
-100.175
11
144.156
21
-100.273
0
LINE
8
BLACK
6
CONTINUOUS
10
102.475
20
-100.85
11
102.35
21
-100.85
0
LINE
8
BLACK
6
CONTINUOUS
10
102.35
20
-100.85
11
102.35
21
-101.143
0
LINE
8
BLACK
6
CONTINUOUS
10
102.35
20
-101.143
11
102.352
21
-101.163
0
LINE
8
BLACK
6
CONTINUOUS
10
102.352
20
-101.163
11
102.347
21
-101.182
0
LINE
8
BLACK
6
CONTINUOUS
10
102.347
20
-101.182
11
102.343
21
-101.202
0
LINE
8
BLACK
6
CONTINUOUS
10
102.343
20
-101.202
11
102.34
21
-101.208
0
LINE
8
BLACK
6
CONTINUOUS
10
102.34
20
-101.208
11
102.338
21
-101.214
0
LINE
8
BLACK
6
CONTINUOUS
10
102.338
20
-101.214
11
102.327
21
-101.231
0
LINE
8
BLACK
6
CONTINUOUS
10
102.327
20
-101.231
11
102.317
21
-101.248
0
LINE
8
BLACK
6
CONTINUOUS
10
102.317
20
-101.248
11
102.301
21
-101.261
0
LINE
8
BLACK
6
CONTINUOUS
10
102.301
20
-101.261
11
102.161
21
-101.401
0
LINE
8
BLACK
6
CONTINUOUS
10
102.161
20
-101.401
11
102.148
21
-101.417
0
LINE
8
BLACK
6
CONTINUOUS
10
102.148
20
-101.417
11
102.131
21
-101.427
0
LINE
8
BLACK
6
CONTINUOUS
10
102.131
20
-101.427
11
102.114
21
-101.438
0
LINE
8
BLACK
6
CONTINUOUS
10
102.114
20
-101.438
11
102.108
21
-101.44
0
LINE
8
BLACK
6
CONTINUOUS
10
102.108
20
-101.44
11
102.102
21
-101.443
0
LINE
8
BLACK
6
CONTINUOUS
10
102.102
20
-101.443
11
102.082
21
-101.447
0
LINE
8
BLACK
6
CONTINUOUS
10
102.082
20
-101.447
11
102.063
21
-101.452
0
LINE
8
BLACK
6
CONTINUOUS
10
102.063
20
-101.452
11
102.043
21
-101.45
0
LINE
8
BLACK
6
CONTINUOUS
10
102.043
20
-101.45
11
101.387
21
-101.45
0
LINE
8
BLACK
6
CONTINUOUS
10
101.387
20
-101.45
11
100.086
21
-102.751
0
LINE
8
BLACK
6
CONTINUOUS
10
100.086
20
-102.751
11
100.073
21
-102.767
0
LINE
8
BLACK
6
CONTINUOUS
10
100.073
20
-102.767
11
100.056
21
-102.777
0
LINE
8
BLACK
6
CONTINUOUS
10
100.056
20
-102.777
11
100.039
21
-102.788
0
LINE
8
BLACK
6
CONTINUOUS
10
100.039
20
-102.788
11
100.033
21
-102.79
0
LINE
8
BLACK
6
CONTINUOUS
10
100.033
20
-102.79
11
100.027
21
-102.793
0
LINE
8
BLACK
6
CONTINUOUS
10
100.027
20
-102.793
11
100.007
21
-102.797
0
LINE
8
BLACK
6
CONTINUOUS
10
100.007
20
-102.797
11
99.9883
21
-102.802
0
LINE
8
BLACK
6
CONTINUOUS
10
99.9883
20
-102.802
11
99.9685
21
-102.8
0
LINE
8
BLACK
6
CONTINUOUS
10
99.9685
20
-102.8
11
99.675
21
-102.8
0
LINE
8
BLACK
6
CONTINUOUS
10
99.675
20
-102.8
11
99.675
21
-103.25
0
LINE
8
BLACK
6
CONTINUOUS
10
99.675
20
-103.25
11
98.925
21
-103.25
0
LINE
8
BLACK
6
CONTINUOUS
10
98.925
20
-103.25
11
98.925
21
-102.05
0
LINE
8
BLACK
6
CONTINUOUS
10
98.925
20
-102.05
11
99.675
21
-102.05
0
LINE
8
BLACK
6
CONTINUOUS
10
99.675
20
-102.05
11
99.675
21
-102.5
0
LINE
8
BLACK
6
CONTINUOUS
10
99.675
20
-102.5
11
99.9129
21
-102.5
0
LINE
8
BLACK
6
CONTINUOUS
10
99.9129
20
-102.5
11
101.214
21
-101.199
0
LINE
8
BLACK
6
CONTINUOUS
10
101.214
20
-101.199
11
101.227
21
-101.183
0
LINE
8
BLACK
6
CONTINUOUS
10
101.227
20
-101.183
11
101.244
21
-101.173
0
LINE
8
BLACK
6
CONTINUOUS
10
101.244
20
-101.173
11
101.261
21
-101.162
0
LINE
8
BLACK
6
CONTINUOUS
10
101.261
20
-101.162
11
101.267
21
-101.16
0
LINE
8
BLACK
6
CONTINUOUS
10
101.267
20
-101.16
11
101.273
21
-101.157
0
LINE
8
BLACK
6
CONTINUOUS
10
101.273
20
-101.157
11
101.293
21
-101.153
0
LINE
8
BLACK
6
CONTINUOUS
10
101.293
20
-101.153
11
101.312
21
-101.148
0
LINE
8
BLACK
6
CONTINUOUS
10
101.312
20
-101.148
11
101.332
21
-101.15
0
LINE
8
BLACK
6
CONTINUOUS
10
101.332
20
-101.15
11
101.988
21
-101.15
0
LINE
8
BLACK
6
CONTINUOUS
10
101.988
20
-101.15
11
102.05
21
-101.088
0
LINE
8
BLACK
6
CONTINUOUS
10
102.05
20
-101.088
11
102.05
21
-100.85
0
LINE
8
BLACK
6
CONTINUOUS
10
102.05
20
-100.85
11
101.925
21
-100.85
0
LINE
8
BLACK
6
CONTINUOUS
10
101.925
20
-100.85
11
101.925
21
-99.25
0
LINE
8
BLACK
6
CONTINUOUS
10
101.925
20
-99.25
11
102.475
21
-99.25
0
LINE
8
BLACK
6
CONTINUOUS
10
102.475
20
-99.25
11
102.475
21
-100.85
0
LINE
8
BLACK
6
CONTINUOUS
10
108.55
20
-102.875
11
107.35
21
-102.875
0
LINE
8
BLACK
6
CONTINUOUS
10
107.35
20
-102.875
11
107.35
21
-102.125
0
LINE
8
BLACK
6
CONTINUOUS
10
107.35
20
-102.125
11
108.55
21
-102.125
0
LINE
8
BLACK
6
CONTINUOUS
10
108.55
20
-102.125
11
108.55
21
-102.875
0
LINE
8
BLACK
6
CONTINUOUS
10
100.875
20
-100.85
11
100.325
21
-100.85
0
LINE
8
BLACK
6
CONTINUOUS
10
100.325
20
-100.85
11
100.325
21
-99.25
0
LINE
8
BLACK
6
CONTINUOUS
10
100.325
20
-99.25
11
100.875
21
-99.25
0
LINE
8
BLACK
6
CONTINUOUS
10
100.875
20
-99.25
11
100.875
21
-100.85
0
LINE
8
BLACK
6
CONTINUOUS
10
101.675
20
-100.85
11
101.125
21
-100.85
0
LINE
8
BLACK
6
CONTINUOUS
10
101.125
20
-100.85
11
101.125
21
-99.25
0
LINE
8
BLACK
6
CONTINUOUS
10
101.125
20
-99.25
11
101.675
21
-99.25
0
LINE
8
BLACK
6
CONTINUOUS
10
101.675
20
-99.25
11
101.675
21
-100.85
0
LINE
8
BLACK
6
CONTINUOUS
10
104.896
20
-92.6799
11
105.018
21
-92.7504
0
LINE
8
BLACK
6
CONTINUOUS
10
105.018
20
-92.7504
11
105.108
21
-92.8585
0
LINE
8
BLACK
6
CONTINUOUS
10
105.108
20
-92.8585
11
105.157
21
-92.991
0
LINE
8
BLACK
6
CONTINUOUS
10
105.157
20
-92.991
11
105.157
21
-93.1321
0
LINE
8
BLACK
6
CONTINUOUS
10
105.157
20
-93.1321
11
105.108
21
-93.2647
0
LINE
8
BLACK
6
CONTINUOUS
10
105.108
20
-93.2647
11
105.018
21
-93.3727
0
LINE
8
BLACK
6
CONTINUOUS
10
105.018
20
-93.3727
11
104.907
21
-93.4369
0
LINE
8
BLACK
6
CONTINUOUS
10
104.907
20
-93.4369
11
104.907
21
-93.6207
0
LINE
8
BLACK
6
CONTINUOUS
10
104.907
20
-93.6207
11
104.908
21
-93.6405
0
LINE
8
BLACK
6
CONTINUOUS
10
104.908
20
-93.6405
11
104.903
21
-93.6598
0
LINE
8
BLACK
6
CONTINUOUS
10
104.903
20
-93.6598
11
104.9
21
-93.6794
0
LINE
8
BLACK
6
CONTINUOUS
10
104.9
20
-93.6794
11
104.896
21
-93.6852
0
LINE
8
BLACK
6
CONTINUOUS
10
104.896
20
-93.6852
11
104.895
21
-93.6916
0
LINE
8
BLACK
6
CONTINUOUS
10
104.895
20
-93.6916
11
104.883
21
-93.7079
0
LINE
8
BLACK
6
CONTINUOUS
10
104.883
20
-93.7079
11
104.873
21
-93.7252
0
LINE
8
BLACK
6
CONTINUOUS
10
104.873
20
-93.7252
11
104.858
21
-93.738
0
LINE
8
BLACK
6
CONTINUOUS
10
104.858
20
-93.738
11
104.7
21
-93.896
0
LINE
8
BLACK
6
CONTINUOUS
10
104.7
20
-93.896
11
104.7
21
-96.3299
0
LINE
8
BLACK
6
CONTINUOUS
10
104.7
20
-96.3299
11
105.151
21
-96.7813
0
LINE
8
BLACK
6
CONTINUOUS
10
105.151
20
-96.7813
11
105.167
21
-96.7941
0
LINE
8
BLACK
6
CONTINUOUS
10
105.167
20
-96.7941
11
105.177
21
-96.8113
0
LINE
8
BLACK
6
CONTINUOUS
10
105.177
20
-96.8113
11
105.188
21
-96.8276
0
LINE
8
BLACK
6
CONTINUOUS
10
105.188
20
-96.8276
11
105.19
21
-96.8341
0
LINE
8
BLACK
6
CONTINUOUS
10
105.19
20
-96.8341
11
105.193
21
-96.8399
0
LINE
8
BLACK
6
CONTINUOUS
10
105.193
20
-96.8399
11
105.197
21
-96.8595
0
LINE
8
BLACK
6
CONTINUOUS
10
105.197
20
-96.8595
11
105.202
21
-96.8787
0
LINE
8
BLACK
6
CONTINUOUS
10
105.202
20
-96.8787
11
105.2
21
-96.8985
0
LINE
8
BLACK
6
CONTINUOUS
10
105.2
20
-96.8985
11
105.2
21
-97.6935
0
LINE
8
BLACK
6
CONTINUOUS
10
105.2
20
-97.6935
11
105.202
21
-97.7133
0
LINE
8
BLACK
6
CONTINUOUS
10
105.202
20
-97.7133
11
105.197
21
-97.7325
0
LINE
8
BLACK
6
CONTINUOUS
10
105.197
20
-97.7325
11
105.193
21
-97.7521
0
LINE
8
BLACK
6
CONTINUOUS
10
105.193
20
-97.7521
11
105.19
21
-97.7579
0
LINE
8
BLACK
6
CONTINUOUS
10
105.19
20
-97.7579
11
105.188
21
-97.7644
0
LINE
8
BLACK
6
CONTINUOUS
10
105.188
20
-97.7644
11
105.177
21
-97.7807
0
LINE
8
BLACK
6
CONTINUOUS
10
105.177
20
-97.7807
11
105.167
21
-97.7979
0
LINE
8
BLACK
6
CONTINUOUS
10
105.167
20
-97.7979
11
105.151
21
-97.8107
0
LINE
8
BLACK
6
CONTINUOUS
10
105.151
20
-97.8107
11
103.95
21
-99.0121
0
LINE
8
BLACK
6
CONTINUOUS
10
103.95
20
-99.0121
11
103.95
21
-99.25
0
LINE
8
BLACK
6
CONTINUOUS
10
103.95
20
-99.25
11
104.075
21
-99.25
0
LINE
8
BLACK
6
CONTINUOUS
10
104.075
20
-99.25
11
104.075
21
-100.85
0
LINE
8
BLACK
6
CONTINUOUS
10
104.075
20
-100.85
11
103.525
21
-100.85
0
LINE
8
BLACK
6
CONTINUOUS
10
103.525
20
-100.85
11
103.525
21
-99.25
0
LINE
8
BLACK
6
CONTINUOUS
10
103.525
20
-99.25
11
103.65
21
-99.25
0
LINE
8
BLACK
6
CONTINUOUS
10
103.65
20
-99.25
11
103.65
21
-98.9565
0
LINE
8
BLACK
6
CONTINUOUS
10
103.65
20
-98.9565
11
103.648
21
-98.9367
0
LINE
8
BLACK
6
CONTINUOUS
10
103.648
20
-98.9367
11
103.653
21
-98.9175
0
LINE
8
BLACK
6
CONTINUOUS
10
103.653
20
-98.9175
11
103.657
21
-98.8979
0
LINE
8
BLACK
6
CONTINUOUS
10
103.657
20
-98.8979
11
103.66
21
-98.8921
0
LINE
8
BLACK
6
CONTINUOUS
10
103.66
20
-98.8921
11
103.662
21
-98.8856
0
LINE
8
BLACK
6
CONTINUOUS
10
103.662
20
-98.8856
11
103.673
21
-98.8693
0
LINE
8
BLACK
6
CONTINUOUS
10
103.673
20
-98.8693
11
103.683
21
-98.8521
0
LINE
8
BLACK
6
CONTINUOUS
10
103.683
20
-98.8521
11
103.699
21
-98.8393
0
LINE
8
BLACK
6
CONTINUOUS
10
103.699
20
-98.8393
11
104.9
21
-97.6379
0
LINE
8
BLACK
6
CONTINUOUS
10
104.9
20
-97.6379
11
104.9
21
-96.9541
0
LINE
8
BLACK
6
CONTINUOUS
10
104.9
20
-96.9541
11
104.449
21
-96.5027
0
LINE
8
BLACK
6
CONTINUOUS
10
104.449
20
-96.5027
11
104.433
21
-96.4899
0
LINE
8
BLACK
6
CONTINUOUS
10
104.433
20
-96.4899
11
104.423
21
-96.4727
0
LINE
8
BLACK
6
CONTINUOUS
10
104.423
20
-96.4727
11
104.412
21
-96.4564
0
LINE
8
BLACK
6
CONTINUOUS
10
104.412
20
-96.4564
11
104.41
21
-96.4499
0
LINE
8
BLACK
6
CONTINUOUS
10
104.41
20
-96.4499
11
104.407
21
-96.4441
0
LINE
8
BLACK
6
CONTINUOUS
10
104.407
20
-96.4441
11
104.403
21
-96.4245
0
LINE
8
BLACK
6
CONTINUOUS
10
104.403
20
-96.4245
11
104.398
21
-96.4053
0
LINE
8
BLACK
6
CONTINUOUS
10
104.398
20
-96.4053
11
104.4
21
-96.3855
0
LINE
8
BLACK
6
CONTINUOUS
10
104.4
20
-96.3855
11
104.4
21
-93.8404
0
LINE
8
BLACK
6
CONTINUOUS
10
104.4
20
-93.8404
11
104.398
21
-93.8206
0
LINE
8
BLACK
6
CONTINUOUS
10
104.398
20
-93.8206
11
104.403
21
-93.8014
0
LINE
8
BLACK
6
CONTINUOUS
10
104.403
20
-93.8014
11
104.407
21
-93.7818
0
LINE
8
BLACK
6
CONTINUOUS
10
104.407
20
-93.7818
11
104.41
21
-93.776
0
LINE
8
BLACK
6
CONTINUOUS
10
104.41
20
-93.776
11
104.412
21
-93.7695
0
LINE
8
BLACK
6
CONTINUOUS
10
104.412
20
-93.7695
11
104.423
21
-93.7532
0
LINE
8
BLACK
6
CONTINUOUS
10
104.423
20
-93.7532
11
104.433
21
-93.736
0
LINE
8
BLACK
6
CONTINUOUS
10
104.433
20
-93.736
11
104.449
21
-93.7232
0
LINE
8
BLACK
6
CONTINUOUS
10
104.449
20
-93.7232
11
104.607
21
-93.5651
0
LINE
8
BLACK
6
CONTINUOUS
10
104.607
20
-93.5651
11
104.607
21
-93.4369
0
LINE
8
BLACK
6
CONTINUOUS
10
104.607
20
-93.4369
11
104.496
21
-93.3727
0
LINE
8
BLACK
6
CONTINUOUS
10
104.496
20
-93.3727
11
104.405
21
-93.2647
0
LINE
8
BLACK
6
CONTINUOUS
10
104.405
20
-93.2647
11
104.357
21
-93.1321
0
LINE
8
BLACK
6
CONTINUOUS
10
104.357
20
-93.1321
11
104.357
21
-92.991
0
LINE
8
BLACK
6
CONTINUOUS
10
104.357
20
-92.991
11
104.405
21
-92.8585
0
LINE
8
BLACK
6
CONTINUOUS
10
104.405
20
-92.8585
11
104.496
21
-92.7504
0
LINE
8
BLACK
6
CONTINUOUS
10
104.496
20
-92.7504
11
104.618
21
-92.6799
0
LINE
8
BLACK
6
CONTINUOUS
10
104.618
20
-92.6799
11
104.757
21
-92.6554
0
LINE
8
BLACK
6
CONTINUOUS
10
104.757
20
-92.6554
11
104.896
21
-92.6799
0
LINE
8
BLACK
6
CONTINUOUS
10
105.995
20
-92.7244
11
106.117
21
-92.7949
0
LINE
8
BLACK
6
CONTINUOUS
10
106.117
20
-92.7949
11
106.208
21
-92.9029
0
LINE
8
BLACK
6
CONTINUOUS
10
106.208
20
-92.9029
11
106.256
21
-93.0355
0
LINE
8
BLACK
6
CONTINUOUS
10
106.256
20
-93.0355
11
106.256
21
-93.1766
0
LINE
8
BLACK
6
CONTINUOUS
10
106.256
20
-93.1766
11
106.208
21
-93.3091
0
LINE
8
BLACK
6
CONTINUOUS
10
106.208
20
-93.3091
11
106.117
21
-93.4172
0
LINE
8
BLACK
6
CONTINUOUS
10
106.117
20
-93.4172
11
106.006
21
-93.4813
0
LINE
8
BLACK
6
CONTINUOUS
10
106.006
20
-93.4813
11
106.006
21
-93.5202
0
LINE
8
BLACK
6
CONTINUOUS
10
106.006
20
-93.5202
11
106.007
21
-93.54
0
LINE
8
BLACK
6
CONTINUOUS
10
106.007
20
-93.54
11
106.002
21
-93.5592
0
LINE
8
BLACK
6
CONTINUOUS
10
106.002
20
-93.5592
11
105.999
21
-93.5788
0
LINE
8
BLACK
6
CONTINUOUS
10
105.999
20
-93.5788
11
105.996
21
-93.5846
0
LINE
8
BLACK
6
CONTINUOUS
10
105.996
20
-93.5846
11
105.994
21
-93.5911
0
LINE
8
BLACK
6
CONTINUOUS
10
105.994
20
-93.5911
11
105.982
21
-93.6074
0
LINE
8
BLACK
6
CONTINUOUS
10
105.982
20
-93.6074
11
105.972
21
-93.6246
0
LINE
8
BLACK
6
CONTINUOUS
10
105.972
20
-93.6246
11
105.957
21
-93.6374
0
LINE
8
BLACK
6
CONTINUOUS
10
105.957
20
-93.6374
11
105.3
21
-94.2946
0
LINE
8
BLACK
6
CONTINUOUS
10
105.3
20
-94.2946
11
105.3
21
-95.8429
0
LINE
8
BLACK
6
CONTINUOUS
10
105.3
20
-95.8429
11
105.751
21
-96.2944
0
LINE
8
BLACK
6
CONTINUOUS
10
105.751
20
-96.2944
11
105.767
21
-96.3071
0
LINE
8
BLACK
6
CONTINUOUS
10
105.767
20
-96.3071
11
105.777
21
-96.3244
0
LINE
8
BLACK
6
CONTINUOUS
10
105.777
20
-96.3244
11
105.788
21
-96.3407
0
LINE
8
BLACK
6
CONTINUOUS
10
105.788
20
-96.3407
11
105.79
21
-96.3472
0
LINE
8
BLACK
6
CONTINUOUS
10
105.79
20
-96.3472
11
105.793
21
-96.353
0
LINE
8
BLACK
6
CONTINUOUS
10
105.793
20
-96.353
11
105.797
21
-96.3726
0
LINE
8
BLACK
6
CONTINUOUS
10
105.797
20
-96.3726
11
105.802
21
-96.3918
0
LINE
8
BLACK
6
CONTINUOUS
10
105.802
20
-96.3918
11
105.8
21
-96.4116
0
LINE
8
BLACK
6
CONTINUOUS
10
105.8
20
-96.4116
11
105.8
21
-97.95
0
LINE
8
BLACK
6
CONTINUOUS
10
105.8
20
-97.95
11
105.802
21
-97.9698
0
LINE
8
BLACK
6
CONTINUOUS
10
105.802
20
-97.9698
11
105.797
21
-97.989
0
LINE
8
BLACK
6
CONTINUOUS
10
105.797
20
-97.989
11
105.793
21
-98.0086
0
LINE
8
BLACK
6
CONTINUOUS
10
105.793
20
-98.0086
11
105.79
21
-98.0144
0
LINE
8
BLACK
6
CONTINUOUS
10
105.79
20
-98.0144
11
105.788
21
-98.0209
0
LINE
8
BLACK
6
CONTINUOUS
10
105.788
20
-98.0209
11
105.777
21
-98.0372
0
LINE
8
BLACK
6
CONTINUOUS
10
105.777
20
-98.0372
11
105.767
21
-98.0544
0
LINE
8
BLACK
6
CONTINUOUS
10
105.767
20
-98.0544
11
105.751
21
-98.0672
0
LINE
8
BLACK
6
CONTINUOUS
10
105.751
20
-98.0672
11
104.75
21
-99.0687
0
LINE
8
BLACK
6
CONTINUOUS
10
104.75
20
-99.0687
11
104.75
21
-99.25
0
LINE
8
BLACK
6
CONTINUOUS
10
104.75
20
-99.25
11
104.875
21
-99.25
0
LINE
8
BLACK
6
CONTINUOUS
10
104.875
20
-99.25
11
104.875
21
-100.85
0
LINE
8
BLACK
6
CONTINUOUS
10
104.875
20
-100.85
11
104.325
21
-100.85
0
LINE
8
BLACK
6
CONTINUOUS
10
104.325
20
-100.85
11
104.325
21
-99.25
0
LINE
8
BLACK
6
CONTINUOUS
10
104.325
20
-99.25
11
104.45
21
-99.25
0
LINE
8
BLACK
6
CONTINUOUS
10
104.45
20
-99.25
11
104.45
21
-99.0131
0
LINE
8
BLACK
6
CONTINUOUS
10
104.45
20
-99.0131
11
104.448
21
-98.9933
0
LINE
8
BLACK
6
CONTINUOUS
10
104.448
20
-98.9933
11
104.453
21
-98.974
0
LINE
8
BLACK
6
CONTINUOUS
10
104.453
20
-98.974
11
104.457
21
-98.9545
0
LINE
8
BLACK
6
CONTINUOUS
10
104.457
20
-98.9545
11
104.46
21
-98.9487
0
LINE
8
BLACK
6
CONTINUOUS
10
104.46
20
-98.9487
11
104.462
21
-98.9422
0
LINE
8
BLACK
6
CONTINUOUS
10
104.462
20
-98.9422
11
104.473
21
-98.9259
0
LINE
8
BLACK
6
CONTINUOUS
10
104.473
20
-98.9259
11
104.483
21
-98.9086
0
LINE
8
BLACK
6
CONTINUOUS
10
104.483
20
-98.9086
11
104.499
21
-98.8959
0
LINE
8
BLACK
6
CONTINUOUS
10
104.499
20
-98.8959
11
105.5
21
-97.8944
0
LINE
8
BLACK
6
CONTINUOUS
10
105.5
20
-97.8944
11
105.5
21
-96.4672
0
LINE
8
BLACK
6
CONTINUOUS
10
105.5
20
-96.4672
11
105.049
21
-96.0158
0
LINE
8
BLACK
6
CONTINUOUS
10
105.049
20
-96.0158
11
105.033
21
-96.003
0
LINE
8
BLACK
6
CONTINUOUS
10
105.033
20
-96.003
11
105.023
21
-95.9857
0
LINE
8
BLACK
6
CONTINUOUS
10
105.023
20
-95.9857
11
105.012
21
-95.9694
0
LINE
8
BLACK
6
CONTINUOUS
10
105.012
20
-95.9694
11
105.01
21
-95.963
0
LINE
8
BLACK
6
CONTINUOUS
10
105.01
20
-95.963
11
105.007
21
-95.9572
0
LINE
8
BLACK
6
CONTINUOUS
10
105.007
20
-95.9572
11
105.003
21
-95.9376
0
LINE
8
BLACK
6
CONTINUOUS
10
105.003
20
-95.9376
11
104.998
21
-95.9183
0
LINE
8
BLACK
6
CONTINUOUS
10
104.998
20
-95.9183
11
105
21
-95.8985
0
LINE
8
BLACK
6
CONTINUOUS
10
105
20
-95.8985
11
105
21
-94.239
0
LINE
8
BLACK
6
CONTINUOUS
10
105
20
-94.239
11
104.998
21
-94.2192
0
LINE
8
BLACK
6
CONTINUOUS
10
104.998
20
-94.2192
11
105.003
21
-94.1999
0
LINE
8
BLACK
6
CONTINUOUS
10
105.003
20
-94.1999
11
105.007
21
-94.1804
0
LINE
8
BLACK
6
CONTINUOUS
10
105.007
20
-94.1804
11
105.01
21
-94.1746
0
LINE
8
BLACK
6
CONTINUOUS
10
105.01
20
-94.1746
11
105.012
21
-94.1681
0
LINE
8
BLACK
6
CONTINUOUS
10
105.012
20
-94.1681
11
105.023
21
-94.1518
0
LINE
8
BLACK
6
CONTINUOUS
10
105.023
20
-94.1518
11
105.033
21
-94.1345
0
LINE
8
BLACK
6
CONTINUOUS
10
105.033
20
-94.1345
11
105.049
21
-94.1218
0
LINE
8
BLACK
6
CONTINUOUS
10
105.049
20
-94.1218
11
105.695
21
-93.4752
0
LINE
8
BLACK
6
CONTINUOUS
10
105.695
20
-93.4752
11
105.595
21
-93.4172
0
LINE
8
BLACK
6
CONTINUOUS
10
105.595
20
-93.4172
11
105.504
21
-93.3091
0
LINE
8
BLACK
6
CONTINUOUS
10
105.504
20
-93.3091
11
105.456
21
-93.1766
0
LINE
8
BLACK
6
CONTINUOUS
10
105.456
20
-93.1766
11
105.456
21
-93.0355
0
LINE
8
BLACK
6
CONTINUOUS
10
105.456
20
-93.0355
11
105.504
21
-92.9029
0
LINE
8
BLACK
6
CONTINUOUS
10
105.504
20
-92.9029
11
105.595
21
-92.7949
0
LINE
8
BLACK
6
CONTINUOUS
10
105.595
20
-92.7949
11
105.717
21
-92.7244
0
LINE
8
BLACK
6
CONTINUOUS
10
105.717
20
-92.7244
11
105.856
21
-92.6999
0
LINE
8
BLACK
6
CONTINUOUS
10
105.856
20
-92.6999
11
105.995
21
-92.7244
0
LINE
8
BLACK
6
CONTINUOUS
10
119.6
20
-96.55
11
117.712
21
-96.55
0
LINE
8
BLACK
6
CONTINUOUS
10
117.712
20
-96.55
11
117.311
21
-96.9514
0
LINE
8
BLACK
6
CONTINUOUS
10
117.311
20
-96.9514
11
117.298
21
-96.9667
0
LINE
8
BLACK
6
CONTINUOUS
10
117.298
20
-96.9667
11
117.281
21
-96.9766
0
LINE
8
BLACK
6
CONTINUOUS
10
117.281
20
-96.9766
11
117.264
21
-96.988
0
LINE
8
BLACK
6
CONTINUOUS
10
117.264
20
-96.988
11
117.258
21
-96.9898
0
LINE
8
BLACK
6
CONTINUOUS
10
117.258
20
-96.9898
11
117.252
21
-96.9931
0
LINE
8
BLACK
6
CONTINUOUS
10
117.252
20
-96.9931
11
117.232
21
-96.9966
0
LINE
8
BLACK
6
CONTINUOUS
10
117.232
20
-96.9966
11
117.213
21
-97.0017
0
LINE
8
BLACK
6
CONTINUOUS
10
117.213
20
-97.0017
11
117.193
21
-97
0
LINE
8
BLACK
6
CONTINUOUS
10
117.193
20
-97
11
116.461
21
-97
0
LINE
8
BLACK
6
CONTINUOUS
10
116.461
20
-97
11
113.059
21
-100.401
0
LINE
8
BLACK
6
CONTINUOUS
10
113.059
20
-100.401
11
113.046
21
-100.417
0
LINE
8
BLACK
6
CONTINUOUS
10
113.046
20
-100.417
11
113.029
21
-100.427
0
LINE
8
BLACK
6
CONTINUOUS
10
113.029
20
-100.427
11
113.013
21
-100.438
0
LINE
8
BLACK
6
CONTINUOUS
10
113.013
20
-100.438
11
113.006
21
-100.44
0
LINE
8
BLACK
6
CONTINUOUS
10
113.006
20
-100.44
11
113.001
21
-100.443
0
LINE
8
BLACK
6
CONTINUOUS
10
113.001
20
-100.443
11
112.981
21
-100.447
0
LINE
8
BLACK
6
CONTINUOUS
10
112.981
20
-100.447
11
112.962
21
-100.452
0
LINE
8
BLACK
6
CONTINUOUS
10
112.962
20
-100.452
11
112.942
21
-100.45
0
LINE
8
BLACK
6
CONTINUOUS
10
112.942
20
-100.45
11
109.882
21
-100.45
0
LINE
8
BLACK
6
CONTINUOUS
10
109.882
20
-100.45
11
109.862
21
-100.452
0
LINE
8
BLACK
6
CONTINUOUS
10
109.862
20
-100.452
11
109.843
21
-100.447
0
LINE
8
BLACK
6
CONTINUOUS
10
109.843
20
-100.447
11
109.823
21
-100.443
0
LINE
8
BLACK
6
CONTINUOUS
10
109.823
20
-100.443
11
109.817
21
-100.44
0
LINE
8
BLACK
6
CONTINUOUS
10
109.817
20
-100.44
11
109.811
21
-100.438
0
LINE
8
BLACK
6
CONTINUOUS
10
109.811
20
-100.438
11
109.794
21
-100.427
0
LINE
8
BLACK
6
CONTINUOUS
10
109.794
20
-100.427
11
109.777
21
-100.417
0
LINE
8
BLACK
6
CONTINUOUS
10
109.777
20
-100.417
11
109.764
21
-100.401
0
LINE
8
BLACK
6
CONTINUOUS
10
109.764
20
-100.401
11
108.238
21
-98.875
0
LINE
8
BLACK
6
CONTINUOUS
10
108.238
20
-98.875
11
106.85
21
-98.875
0
LINE
8
BLACK
6
CONTINUOUS
10
106.85
20
-98.875
11
106.85
21
-98.325
0
LINE
8
BLACK
6
CONTINUOUS
10
106.85
20
-98.325
11
108.45
21
-98.325
0
LINE
8
BLACK
6
CONTINUOUS
10
108.45
20
-98.325
11
108.45
21
-98.6629
0
LINE
8
BLACK
6
CONTINUOUS
10
108.45
20
-98.6629
11
109.937
21
-100.15
0
LINE
8
BLACK
6
CONTINUOUS
10
109.937
20
-100.15
11
112.886
21
-100.15
0
LINE
8
BLACK
6
CONTINUOUS
10
112.886
20
-100.15
11
116.288
21
-96.7486
0
LINE
8
BLACK
6
CONTINUOUS
10
116.288
20
-96.7486
11
116.301
21
-96.7333
0
LINE
8
BLACK
6
CONTINUOUS
10
116.301
20
-96.7333
11
116.318
21
-96.7234
0
LINE
8
BLACK
6
CONTINUOUS
10
116.318
20
-96.7234
11
116.334
21
-96.712
0
LINE
8
BLACK
6
CONTINUOUS
10
116.334
20
-96.712
11
116.341
21
-96.7102
0
LINE
8
BLACK
6
CONTINUOUS
10
116.341
20
-96.7102
11
116.346
21
-96.7069
0
LINE
8
BLACK
6
CONTINUOUS
10
116.346
20
-96.7069
11
116.366
21
-96.7034
0
LINE
8
BLACK
6
CONTINUOUS
10
116.366
20
-96.7034
11
116.385
21
-96.6983
0
LINE
8
BLACK
6
CONTINUOUS
10
116.385
20
-96.6983
11
116.405
21
-96.7
0
LINE
8
BLACK
6
CONTINUOUS
10
116.405
20
-96.7
11
117.138
21
-96.7
0
LINE
8
BLACK
6
CONTINUOUS
10
117.138
20
-96.7
11
117.5
21
-96.3379
0
LINE
8
BLACK
6
CONTINUOUS
10
117.5
20
-96.3379
11
117.5
21
-95.6
0
LINE
8
BLACK
6
CONTINUOUS
10
117.5
20
-95.6
11
116.575
21
-95.6
0
LINE
8
BLACK
6
CONTINUOUS
10
116.575
20
-95.6
11
116.575
21
-96.05
0
LINE
8
BLACK
6
CONTINUOUS
10
116.575
20
-96.05
11
115.825
21
-96.05
0
LINE
8
BLACK
6
CONTINUOUS
10
115.825
20
-96.05
11
115.825
21
-94.85
0
LINE
8
BLACK
6
CONTINUOUS
10
115.825
20
-94.85
11
116.575
21
-94.85
0
LINE
8
BLACK
6
CONTINUOUS
10
116.575
20
-94.85
11
116.575
21
-95.3
0
LINE
8
BLACK
6
CONTINUOUS
10
116.575
20
-95.3
11
117.5
21
-95.3
0
LINE
8
BLACK
6
CONTINUOUS
10
117.5
20
-95.3
11
117.5
21
-94.75
0
LINE
8
BLACK
6
CONTINUOUS
10
117.5
20
-94.75
11
119.6
21
-94.75
0
LINE
8
BLACK
6
CONTINUOUS
10
119.6
20
-94.75
11
119.6
21
-96.55
0
LINE
8
BLACK
6
CONTINUOUS
10
119.782
20
-91.6534
11
119.802
21
-91.6569
0
LINE
8
BLACK
6
CONTINUOUS
10
119.802
20
-91.6569
11
119.808
21
-91.6602
0
LINE
8
BLACK
6
CONTINUOUS
10
119.808
20
-91.6602
11
119.814
21
-91.662
0
LINE
8
BLACK
6
CONTINUOUS
10
119.814
20
-91.662
11
119.831
21
-91.6734
0
LINE
8
BLACK
6
CONTINUOUS
10
119.831
20
-91.6734
11
119.848
21
-91.6833
0
LINE
8
BLACK
6
CONTINUOUS
10
119.848
20
-91.6833
11
119.861
21
-91.6986
0
LINE
8
BLACK
6
CONTINUOUS
10
119.861
20
-91.6986
11
120.612
21
-92.45
0
LINE
8
BLACK
6
CONTINUOUS
10
120.612
20
-92.45
11
122.5
21
-92.45
0
LINE
8
BLACK
6
CONTINUOUS
10
122.5
20
-92.45
11
122.5
21
-93.2
0
LINE
8
BLACK
6
CONTINUOUS
10
122.5
20
-93.2
11
123.625
21
-93.2
0
LINE
8
BLACK
6
CONTINUOUS
10
123.625
20
-93.2
11
123.625
21
-92.95
0
LINE
8
BLACK
6
CONTINUOUS
10
123.625
20
-92.95
11
124.375
21
-92.95
0
LINE
8
BLACK
6
CONTINUOUS
10
124.375
20
-92.95
11
124.375
21
-94.15
0
LINE
8
BLACK
6
CONTINUOUS
10
124.375
20
-94.15
11
123.625
21
-94.15
0
LINE
8
BLACK
6
CONTINUOUS
10
123.625
20
-94.15
11
123.625
21
-93.5
0
LINE
8
BLACK
6
CONTINUOUS
10
123.625
20
-93.5
11
122.5
21
-93.5
0
LINE
8
BLACK
6
CONTINUOUS
10
122.5
20
-93.5
11
122.5
21
-94.25
0
LINE
8
BLACK
6
CONTINUOUS
10
122.5
20
-94.25
11
120.4
21
-94.25
0
LINE
8
BLACK
6
CONTINUOUS
10
120.4
20
-94.25
11
120.4
21
-92.6621
0
LINE
8
BLACK
6
CONTINUOUS
10
120.4
20
-92.6621
11
119.688
21
-91.95
0
LINE
8
BLACK
6
CONTINUOUS
10
119.688
20
-91.95
11
114.562
21
-91.95
0
LINE
8
BLACK
6
CONTINUOUS
10
114.562
20
-91.95
11
114.15
21
-92.3621
0
LINE
8
BLACK
6
CONTINUOUS
10
114.15
20
-92.3621
11
114.15
21
-93.1379
0
LINE
8
BLACK
6
CONTINUOUS
10
114.15
20
-93.1379
11
115.101
21
-94.0893
0
LINE
8
BLACK
6
CONTINUOUS
10
115.101
20
-94.0893
11
115.117
21
-94.1021
0
LINE
8
BLACK
6
CONTINUOUS
10
115.117
20
-94.1021
11
115.127
21
-94.1193
0
LINE
8
BLACK
6
CONTINUOUS
10
115.127
20
-94.1193
11
115.138
21
-94.1356
0
LINE
8
BLACK
6
CONTINUOUS
10
115.138
20
-94.1356
11
115.14
21
-94.1421
0
LINE
8
BLACK
6
CONTINUOUS
10
115.14
20
-94.1421
11
115.143
21
-94.1479
0
LINE
8
BLACK
6
CONTINUOUS
10
115.143
20
-94.1479
11
115.147
21
-94.1675
0
LINE
8
BLACK
6
CONTINUOUS
10
115.147
20
-94.1675
11
115.152
21
-94.1867
0
LINE
8
BLACK
6
CONTINUOUS
10
115.152
20
-94.1867
11
115.15
21
-94.2065
0
LINE
8
BLACK
6
CONTINUOUS
10
115.15
20
-94.2065
11
115.15
21
-97.3935
0
LINE
8
BLACK
6
CONTINUOUS
10
115.15
20
-97.3935
11
115.152
21
-97.4133
0
LINE
8
BLACK
6
CONTINUOUS
10
115.152
20
-97.4133
11
115.147
21
-97.4325
0
LINE
8
BLACK
6
CONTINUOUS
10
115.147
20
-97.4325
11
115.143
21
-97.4521
0
LINE
8
BLACK
6
CONTINUOUS
10
115.143
20
-97.4521
11
115.14
21
-97.4579
0
LINE
8
BLACK
6
CONTINUOUS
10
115.14
20
-97.4579
11
115.138
21
-97.4644
0
LINE
8
BLACK
6
CONTINUOUS
10
115.138
20
-97.4644
11
115.127
21
-97.4807
0
LINE
8
BLACK
6
CONTINUOUS
10
115.127
20
-97.4807
11
115.117
21
-97.4979
0
LINE
8
BLACK
6
CONTINUOUS
10
115.117
20
-97.4979
11
115.101
21
-97.5107
0
LINE
8
BLACK
6
CONTINUOUS
10
115.101
20
-97.5107
11
112.811
21
-99.8014
0
LINE
8
BLACK
6
CONTINUOUS
10
112.811
20
-99.8014
11
112.798
21
-99.8167
0
LINE
8
BLACK
6
CONTINUOUS
10
112.798
20
-99.8167
11
112.781
21
-99.8266
0
LINE
8
BLACK
6
CONTINUOUS
10
112.781
20
-99.8266
11
112.764
21
-99.838
0
LINE
8
BLACK
6
CONTINUOUS
10
112.764
20
-99.838
11
112.758
21
-99.8398
0
LINE
8
BLACK
6
CONTINUOUS
10
112.758
20
-99.8398
11
112.752
21
-99.8431
0
LINE
8
BLACK
6
CONTINUOUS
10
112.752
20
-99.8431
11
112.733
21
-99.8466
0
LINE
8
BLACK
6
CONTINUOUS
10
112.733
20
-99.8466
11
112.713
21
-99.8517
0
LINE
8
BLACK
6
CONTINUOUS
10
112.713
20
-99.8517
11
112.693
21
-99.85
0
LINE
8
BLACK
6
CONTINUOUS
10
112.693
20
-99.85
11
110.207
21
-99.85
0
LINE
8
BLACK
6
CONTINUOUS
10
110.207
20
-99.85
11
110.187
21
-99.8517
0
LINE
8
BLACK
6
CONTINUOUS
10
110.187
20
-99.8517
11
110.167
21
-99.8466
0
LINE
8
BLACK
6
CONTINUOUS
10
110.167
20
-99.8466
11
110.148
21
-99.8431
0
LINE
8
BLACK
6
CONTINUOUS
10
110.148
20
-99.8431
11
110.142
21
-99.8398
0
LINE
8
BLACK
6
CONTINUOUS
10
110.142
20
-99.8398
11
110.136
21
-99.838
0
LINE
8
BLACK
6
CONTINUOUS
10
110.136
20
-99.838
11
110.119
21
-99.8266
0
LINE
8
BLACK
6
CONTINUOUS
10
110.119
20
-99.8266
11
110.102
21
-99.8167
0
LINE
8
BLACK
6
CONTINUOUS
10
110.102
20
-99.8167
11
110.089
21
-99.8014
0
LINE
8
BLACK
6
CONTINUOUS
10
110.089
20
-99.8014
11
108.799
21
-98.5107
0
LINE
8
BLACK
6
CONTINUOUS
10
108.799
20
-98.5107
11
108.783
21
-98.4979
0
LINE
8
BLACK
6
CONTINUOUS
10
108.783
20
-98.4979
11
108.773
21
-98.4807
0
LINE
8
BLACK
6
CONTINUOUS
10
108.773
20
-98.4807
11
108.762
21
-98.4644
0
LINE
8
BLACK
6
CONTINUOUS
10
108.762
20
-98.4644
11
108.76
21
-98.4579
0
LINE
8
BLACK
6
CONTINUOUS
10
108.76
20
-98.4579
11
108.757
21
-98.4521
0
LINE
8
BLACK
6
CONTINUOUS
10
108.757
20
-98.4521
11
108.753
21
-98.4325
0
LINE
8
BLACK
6
CONTINUOUS
10
108.753
20
-98.4325
11
108.748
21
-98.4133
0
LINE
8
BLACK
6
CONTINUOUS
10
108.748
20
-98.4133
11
108.75
21
-98.3935
0
LINE
8
BLACK
6
CONTINUOUS
10
108.75
20
-98.3935
11
108.75
21
-98.0271
0
LINE
8
BLACK
6
CONTINUOUS
10
108.75
20
-98.0271
11
108.748
21
-98.025
0
LINE
8
BLACK
6
CONTINUOUS
10
108.748
20
-98.025
11
108.45
21
-98.025
0
LINE
8
BLACK
6
CONTINUOUS
10
108.45
20
-98.025
11
108.45
21
-98.075
0
LINE
8
BLACK
6
CONTINUOUS
10
108.45
20
-98.075
11
106.85
21
-98.075
0
LINE
8
BLACK
6
CONTINUOUS
10
106.85
20
-98.075
11
106.85
21
-97.525
0
LINE
8
BLACK
6
CONTINUOUS
10
106.85
20
-97.525
11
108.45
21
-97.525
0
LINE
8
BLACK
6
CONTINUOUS
10
108.45
20
-97.525
11
108.45
21
-97.725
0
LINE
8
BLACK
6
CONTINUOUS
10
108.45
20
-97.725
11
108.803
21
-97.725
0
LINE
8
BLACK
6
CONTINUOUS
10
108.803
20
-97.725
11
108.823
21
-97.7233
0
LINE
8
BLACK
6
CONTINUOUS
10
108.823
20
-97.7233
11
108.842
21
-97.7284
0
LINE
8
BLACK
6
CONTINUOUS
10
108.842
20
-97.7284
11
108.862
21
-97.7319
0
LINE
8
BLACK
6
CONTINUOUS
10
108.862
20
-97.7319
11
108.868
21
-97.7352
0
LINE
8
BLACK
6
CONTINUOUS
10
108.868
20
-97.7352
11
108.874
21
-97.737
0
LINE
8
BLACK
6
CONTINUOUS
10
108.874
20
-97.737
11
108.891
21
-97.7484
0
LINE
8
BLACK
6
CONTINUOUS
10
108.891
20
-97.7484
11
108.908
21
-97.7583
0
LINE
8
BLACK
6
CONTINUOUS
10
108.908
20
-97.7583
11
108.921
21
-97.7736
0
LINE
8
BLACK
6
CONTINUOUS
10
108.921
20
-97.7736
11
109.001
21
-97.8543
0
LINE
8
BLACK
6
CONTINUOUS
10
109.001
20
-97.8543
11
109.017
21
-97.8671
0
LINE
8
BLACK
6
CONTINUOUS
10
109.017
20
-97.8671
11
109.027
21
-97.8843
0
LINE
8
BLACK
6
CONTINUOUS
10
109.027
20
-97.8843
11
109.038
21
-97.9006
0
LINE
8
BLACK
6
CONTINUOUS
10
109.038
20
-97.9006
11
109.04
21
-97.9071
0
LINE
8
BLACK
6
CONTINUOUS
10
109.04
20
-97.9071
11
109.043
21
-97.9129
0
LINE
8
BLACK
6
CONTINUOUS
10
109.043
20
-97.9129
11
109.047
21
-97.9325
0
LINE
8
BLACK
6
CONTINUOUS
10
109.047
20
-97.9325
11
109.052
21
-97.9517
0
LINE
8
BLACK
6
CONTINUOUS
10
109.052
20
-97.9517
11
109.05
21
-97.9715
0
LINE
8
BLACK
6
CONTINUOUS
10
109.05
20
-97.9715
11
109.05
21
-98.3379
0
LINE
8
BLACK
6
CONTINUOUS
10
109.05
20
-98.3379
11
110.262
21
-99.55
0
LINE
8
BLACK
6
CONTINUOUS
10
110.262
20
-99.55
11
112.638
21
-99.55
0
LINE
8
BLACK
6
CONTINUOUS
10
112.638
20
-99.55
11
114.85
21
-97.3379
0
LINE
8
BLACK
6
CONTINUOUS
10
114.85
20
-97.3379
11
114.85
21
-94.2621
0
LINE
8
BLACK
6
CONTINUOUS
10
114.85
20
-94.2621
11
113.899
21
-93.3107
0
LINE
8
BLACK
6
CONTINUOUS
10
113.899
20
-93.3107
11
113.883
21
-93.2979
0
LINE
8
BLACK
6
CONTINUOUS
10
113.883
20
-93.2979
11
113.873
21
-93.2807
0
LINE
8
BLACK
6
CONTINUOUS
10
113.873
20
-93.2807
11
113.862
21
-93.2644
0
LINE
8
BLACK
6
CONTINUOUS
10
113.862
20
-93.2644
11
113.86
21
-93.2579
0
LINE
8
BLACK
6
CONTINUOUS
10
113.86
20
-93.2579
11
113.857
21
-93.2521
0
LINE
8
BLACK
6
CONTINUOUS
10
113.857
20
-93.2521
11
113.853
21
-93.2325
0
LINE
8
BLACK
6
CONTINUOUS
10
113.853
20
-93.2325
11
113.848
21
-93.2133
0
LINE
8
BLACK
6
CONTINUOUS
10
113.848
20
-93.2133
11
113.85
21
-93.1935
0
LINE
8
BLACK
6
CONTINUOUS
10
113.85
20
-93.1935
11
113.85
21
-92.3065
0
LINE
8
BLACK
6
CONTINUOUS
10
113.85
20
-92.3065
11
113.848
21
-92.2867
0
LINE
8
BLACK
6
CONTINUOUS
10
113.848
20
-92.2867
11
113.853
21
-92.2675
0
LINE
8
BLACK
6
CONTINUOUS
10
113.853
20
-92.2675
11
113.857
21
-92.2479
0
LINE
8
BLACK
6
CONTINUOUS
10
113.857
20
-92.2479
11
113.86
21
-92.2421
0
LINE
8
BLACK
6
CONTINUOUS
10
113.86
20
-92.2421
11
113.862
21
-92.2356
0
LINE
8
BLACK
6
CONTINUOUS
10
113.862
20
-92.2356
11
113.873
21
-92.2193
0
LINE
8
BLACK
6
CONTINUOUS
10
113.873
20
-92.2193
11
113.883
21
-92.2021
0
LINE
8
BLACK
6
CONTINUOUS
10
113.883
20
-92.2021
11
113.899
21
-92.1893
0
LINE
8
BLACK
6
CONTINUOUS
10
113.899
20
-92.1893
11
114.389
21
-91.6986
0
LINE
8
BLACK
6
CONTINUOUS
10
114.389
20
-91.6986
11
114.402
21
-91.6833
0
LINE
8
BLACK
6
CONTINUOUS
10
114.402
20
-91.6833
11
114.419
21
-91.6734
0
LINE
8
BLACK
6
CONTINUOUS
10
114.419
20
-91.6734
11
114.436
21
-91.662
0
LINE
8
BLACK
6
CONTINUOUS
10
114.436
20
-91.662
11
114.442
21
-91.6602
0
LINE
8
BLACK
6
CONTINUOUS
10
114.442
20
-91.6602
11
114.448
21
-91.6569
0
LINE
8
BLACK
6
CONTINUOUS
10
114.448
20
-91.6569
11
114.468
21
-91.6534
0
LINE
8
BLACK
6
CONTINUOUS
10
114.468
20
-91.6534
11
114.487
21
-91.6483
0
LINE
8
BLACK
6
CONTINUOUS
10
114.487
20
-91.6483
11
114.507
21
-91.65
0
LINE
8
BLACK
6
CONTINUOUS
10
114.507
20
-91.65
11
119.743
21
-91.65
0
LINE
8
BLACK
6
CONTINUOUS
10
119.743
20
-91.65
11
119.763
21
-91.6483
0
LINE
8
BLACK
6
CONTINUOUS
10
119.763
20
-91.6483
11
119.782
21
-91.6534
0
LINE
8
BLACK
6
CONTINUOUS
10
118.839
20
-98.6183
11
118.961
21
-98.6889
0
LINE
8
BLACK
6
CONTINUOUS
10
118.961
20
-98.6889
11
119.052
21
-98.7969
0
LINE
8
BLACK
6
CONTINUOUS
10
119.052
20
-98.7969
11
119.1
21
-98.9295
0
LINE
8
BLACK
6
CONTINUOUS
10
119.1
20
-98.9295
11
119.1
21
-99.0705
0
LINE
8
BLACK
6
CONTINUOUS
10
119.1
20
-99.0705
11
119.052
21
-99.2031
0
LINE
8
BLACK
6
CONTINUOUS
10
119.052
20
-99.2031
11
118.961
21
-99.3111
0
LINE
8
BLACK
6
CONTINUOUS
10
118.961
20
-99.3111
11
118.839
21
-99.3817
0
LINE
8
BLACK
6
CONTINUOUS
10
118.839
20
-99.3817
11
118.7
21
-99.4062
0
LINE
8
BLACK
6
CONTINUOUS
10
118.7
20
-99.4062
11
118.561
21
-99.3817
0
LINE
8
BLACK
6
CONTINUOUS
10
118.561
20
-99.3817
11
118.439
21
-99.3111
0
LINE
8
BLACK
6
CONTINUOUS
10
118.439
20
-99.3111
11
118.348
21
-99.2031
0
LINE
8
BLACK
6
CONTINUOUS
10
118.348
20
-99.2031
11
118.3
21
-99.0705
0
LINE
8
BLACK
6
CONTINUOUS
10
118.3
20
-99.0705
11
118.3
21
-98.9295
0
LINE
8
BLACK
6
CONTINUOUS
10
118.3
20
-98.9295
11
118.348
21
-98.7969
0
LINE
8
BLACK
6
CONTINUOUS
10
118.348
20
-98.7969
11
118.439
21
-98.6889
0
LINE
8
BLACK
6
CONTINUOUS
10
118.439
20
-98.6889
11
118.561
21
-98.6183
0
LINE
8
BLACK
6
CONTINUOUS
10
118.561
20
-98.6183
11
118.7
21
-98.5938
0
LINE
8
BLACK
6
CONTINUOUS
10
118.7
20
-98.5938
11
118.839
21
-98.6183
0
LINE
8
BLACK
6
CONTINUOUS
10
100.875
20
-92.35
11
100.75
21
-92.35
0
LINE
8
BLACK
6
CONTINUOUS
10
100.75
20
-92.35
11
100.75
21
-92.5698
0
LINE
8
BLACK
6
CONTINUOUS
10
100.75
20
-92.5698
11
103.301
21
-95.1206
0
LINE
8
BLACK
6
CONTINUOUS
10
103.301
20
-95.1206
11
103.316
21
-95.1334
0
LINE
8
BLACK
6
CONTINUOUS
10
103.316
20
-95.1334
11
103.326
21
-95.1506
0
LINE
8
BLACK
6
CONTINUOUS
10
103.326
20
-95.1506
11
103.337
21
-95.1669
0
LINE
8
BLACK
6
CONTINUOUS
10
103.337
20
-95.1669
11
103.339
21
-95.1734
0
LINE
8
BLACK
6
CONTINUOUS
10
103.339
20
-95.1734
11
103.343
21
-95.1792
0
LINE
8
BLACK
6
CONTINUOUS
10
103.343
20
-95.1792
11
103.346
21
-95.1988
0
LINE
8
BLACK
6
CONTINUOUS
10
103.346
20
-95.1988
11
103.351
21
-95.218
0
LINE
8
BLACK
6
CONTINUOUS
10
103.351
20
-95.218
11
103.349
21
-95.2378
0
LINE
8
BLACK
6
CONTINUOUS
10
103.349
20
-95.2378
11
103.349
21
-97.544
0
LINE
8
BLACK
6
CONTINUOUS
10
103.349
20
-97.544
11
103.351
21
-97.5638
0
LINE
8
BLACK
6
CONTINUOUS
10
103.351
20
-97.5638
11
103.346
21
-97.5831
0
LINE
8
BLACK
6
CONTINUOUS
10
103.346
20
-97.5831
11
103.343
21
-97.6027
0
LINE
8
BLACK
6
CONTINUOUS
10
103.343
20
-97.6027
11
103.339
21
-97.6085
0
LINE
8
BLACK
6
CONTINUOUS
10
103.339
20
-97.6085
11
103.337
21
-97.6149
0
LINE
8
BLACK
6
CONTINUOUS
10
103.337
20
-97.6149
11
103.326
21
-97.6312
0
LINE
8
BLACK
6
CONTINUOUS
10
103.326
20
-97.6312
11
103.316
21
-97.6485
0
LINE
8
BLACK
6
CONTINUOUS
10
103.316
20
-97.6485
11
103.301
21
-97.6612
0
LINE
8
BLACK
6
CONTINUOUS
10
103.301
20
-97.6612
11
102.715
21
-98.2468
0
LINE
8
BLACK
6
CONTINUOUS
10
102.715
20
-98.2468
11
102.715
21
-98.2468
0
LINE
8
BLACK
6
CONTINUOUS
10
102.715
20
-98.2468
11
102.569
21
-98.3934
0
LINE
8
BLACK
6
CONTINUOUS
10
102.569
20
-98.3934
11
102.6
21
-98.4795
0
LINE
8
BLACK
6
CONTINUOUS
10
102.6
20
-98.4795
11
102.6
21
-98.6205
0
LINE
8
BLACK
6
CONTINUOUS
10
102.6
20
-98.6205
11
102.552
21
-98.7531
0
LINE
8
BLACK
6
CONTINUOUS
10
102.552
20
-98.7531
11
102.461
21
-98.8611
0
LINE
8
BLACK
6
CONTINUOUS
10
102.461
20
-98.8611
11
102.339
21
-98.9317
0
LINE
8
BLACK
6
CONTINUOUS
10
102.339
20
-98.9317
11
102.2
21
-98.9562
0
LINE
8
BLACK
6
CONTINUOUS
10
102.2
20
-98.9562
11
102.061
21
-98.9317
0
LINE
8
BLACK
6
CONTINUOUS
10
102.061
20
-98.9317
11
101.939
21
-98.8611
0
LINE
8
BLACK
6
CONTINUOUS
10
101.939
20
-98.8611
11
101.848
21
-98.7531
0
LINE
8
BLACK
6
CONTINUOUS
10
101.848
20
-98.7531
11
101.8
21
-98.6205
0
LINE
8
BLACK
6
CONTINUOUS
10
101.8
20
-98.6205
11
101.8
21
-98.4795
0
LINE
8
BLACK
6
CONTINUOUS
10
101.8
20
-98.4795
11
101.848
21
-98.3469
0
LINE
8
BLACK
6
CONTINUOUS
10
101.848
20
-98.3469
11
101.939
21
-98.2388
0
LINE
8
BLACK
6
CONTINUOUS
10
101.939
20
-98.2388
11
102.061
21
-98.1683
0
LINE
8
BLACK
6
CONTINUOUS
10
102.061
20
-98.1683
11
102.2
21
-98.1438
0
LINE
8
BLACK
6
CONTINUOUS
10
102.2
20
-98.1438
11
102.339
21
-98.1683
0
LINE
8
BLACK
6
CONTINUOUS
10
102.339
20
-98.1683
11
102.358
21
-98.1795
0
LINE
8
BLACK
6
CONTINUOUS
10
102.358
20
-98.1795
11
102.503
21
-98.0346
0
LINE
8
BLACK
6
CONTINUOUS
10
102.503
20
-98.0346
11
102.503
21
-98.0346
0
LINE
8
BLACK
6
CONTINUOUS
10
102.503
20
-98.0346
11
103.049
21
-97.4884
0
LINE
8
BLACK
6
CONTINUOUS
10
103.049
20
-97.4884
11
103.049
21
-95.2934
0
LINE
8
BLACK
6
CONTINUOUS
10
103.049
20
-95.2934
11
100.499
21
-92.7426
0
LINE
8
BLACK
6
CONTINUOUS
10
100.499
20
-92.7426
11
100.483
21
-92.7298
0
LINE
8
BLACK
6
CONTINUOUS
10
100.483
20
-92.7298
11
100.473
21
-92.7126
0
LINE
8
BLACK
6
CONTINUOUS
10
100.473
20
-92.7126
11
100.462
21
-92.6963
0
LINE
8
BLACK
6
CONTINUOUS
10
100.462
20
-92.6963
11
100.46
21
-92.6898
0
LINE
8
BLACK
6
CONTINUOUS
10
100.46
20
-92.6898
11
100.457
21
-92.684
0
LINE
8
BLACK
6
CONTINUOUS
10
100.457
20
-92.684
11
100.453
21
-92.6644
0
LINE
8
BLACK
6
CONTINUOUS
10
100.453
20
-92.6644
11
100.448
21
-92.6452
0
LINE
8
BLACK
6
CONTINUOUS
10
100.448
20
-92.6452
11
100.45
21
-92.6253
0
LINE
8
BLACK
6
CONTINUOUS
10
100.45
20
-92.6253
11
100.45
21
-92.35
0
LINE
8
BLACK
6
CONTINUOUS
10
100.45
20
-92.35
11
100.325
21
-92.35
0
LINE
8
BLACK
6
CONTINUOUS
10
100.325
20
-92.35
11
100.325
21
-90.75
0
LINE
8
BLACK
6
CONTINUOUS
10
100.325
20
-90.75
11
100.875
21
-90.75
0
LINE
8
BLACK
6
CONTINUOUS
10
100.875
20
-90.75
11
100.875
21
-92.35
0
LINE
8
BLACK
6
CONTINUOUS
10
147.495
20
-94.9916
11
148.105
21
-95.3443
0
LINE
8
BLACK
6
CONTINUOUS
10
148.105
20
-95.3443
11
148.559
21
-95.8846
0
LINE
8
BLACK
6
CONTINUOUS
10
148.559
20
-95.8846
11
148.8
21
-96.5473
0
LINE
8
BLACK
6
CONTINUOUS
10
148.8
20
-96.5473
11
148.8
21
-97.2527
0
LINE
8
BLACK
6
CONTINUOUS
10
148.8
20
-97.2527
11
148.559
21
-97.9154
0
LINE
8
BLACK
6
CONTINUOUS
10
148.559
20
-97.9154
11
148.105
21
-98.4557
0
LINE
8
BLACK
6
CONTINUOUS
10
148.105
20
-98.4557
11
147.495
21
-98.8084
0
LINE
8
BLACK
6
CONTINUOUS
10
147.495
20
-98.8084
11
146.8
21
-98.9309
0
LINE
8
BLACK
6
CONTINUOUS
10
146.8
20
-98.9309
11
146.105
21
-98.8084
0
LINE
8
BLACK
6
CONTINUOUS
10
146.105
20
-98.8084
11
145.495
21
-98.4557
0
LINE
8
BLACK
6
CONTINUOUS
10
145.495
20
-98.4557
11
145.041
21
-97.9154
0
LINE
8
BLACK
6
CONTINUOUS
10
145.041
20
-97.9154
11
144.8
21
-97.2527
0
LINE
8
BLACK
6
CONTINUOUS
10
144.8
20
-97.2527
11
144.8
21
-96.5473
0
LINE
8
BLACK
6
CONTINUOUS
10
144.8
20
-96.5473
11
145.041
21
-95.8846
0
LINE
8
BLACK
6
CONTINUOUS
10
145.041
20
-95.8846
11
145.495
21
-95.3443
0
LINE
8
BLACK
6
CONTINUOUS
10
145.495
20
-95.3443
11
146.105
21
-94.9916
0
LINE
8
BLACK
6
CONTINUOUS
10
146.105
20
-94.9916
11
146.8
21
-94.8691
0
LINE
8
BLACK
6
CONTINUOUS
10
146.8
20
-94.8691
11
147.495
21
-94.9916
0
LINE
8
BLACK
6
CONTINUOUS
10
112.295
20
-94.8916
11
112.905
21
-95.2443
0
LINE
8
BLACK
6
CONTINUOUS
10
112.905
20
-95.2443
11
113.359
21
-95.7846
0
LINE
8
BLACK
6
CONTINUOUS
10
113.359
20
-95.7846
11
113.6
21
-96.4473
0
LINE
8
BLACK
6
CONTINUOUS
10
113.6
20
-96.4473
11
113.6
21
-97.1527
0
LINE
8
BLACK
6
CONTINUOUS
10
113.6
20
-97.1527
11
113.359
21
-97.8154
0
LINE
8
BLACK
6
CONTINUOUS
10
113.359
20
-97.8154
11
112.905
21
-98.3557
0
LINE
8
BLACK
6
CONTINUOUS
10
112.905
20
-98.3557
11
112.295
21
-98.7084
0
LINE
8
BLACK
6
CONTINUOUS
10
112.295
20
-98.7084
11
111.6
21
-98.8309
0
LINE
8
BLACK
6
CONTINUOUS
10
111.6
20
-98.8309
11
110.905
21
-98.7084
0
LINE
8
BLACK
6
CONTINUOUS
10
110.905
20
-98.7084
11
110.295
21
-98.3557
0
LINE
8
BLACK
6
CONTINUOUS
10
110.295
20
-98.3557
11
109.841
21
-97.8154
0
LINE
8
BLACK
6
CONTINUOUS
10
109.841
20
-97.8154
11
109.6
21
-97.1527
0
LINE
8
BLACK
6
CONTINUOUS
10
109.6
20
-97.1527
11
109.6
21
-96.4473
0
LINE
8
BLACK
6
CONTINUOUS
10
109.6
20
-96.4473
11
109.841
21
-95.7846
0
LINE
8
BLACK
6
CONTINUOUS
10
109.841
20
-95.7846
11
110.295
21
-95.2443
0
LINE
8
BLACK
6
CONTINUOUS
10
110.295
20
-95.2443
11
110.905
21
-94.8916
0
LINE
8
BLACK
6
CONTINUOUS
10
110.905
20
-94.8916
11
111.6
21
-94.7691
0
LINE
8
BLACK
6
CONTINUOUS
10
111.6
20
-94.7691
11
112.295
21
-94.8916
0
LINE
8
BLACK
6
CONTINUOUS
10
99.95
20
-98.075
11
98.35
21
-98.075
0
LINE
8
BLACK
6
CONTINUOUS
10
98.35
20
-98.075
11
98.35
21
-97.525
0
LINE
8
BLACK
6
CONTINUOUS
10
98.35
20
-97.525
11
99.95
21
-97.525
0
LINE
8
BLACK
6
CONTINUOUS
10
99.95
20
-97.525
11
99.95
21
-98.075
0
LINE
8
BLACK
6
CONTINUOUS
10
99.95
20
-94.4
11
100.814
21
-94.4
0
LINE
8
BLACK
6
CONTINUOUS
10
100.814
20
-94.4
11
100.834
21
-94.3983
0
LINE
8
BLACK
6
CONTINUOUS
10
100.834
20
-94.3983
11
100.854
21
-94.4034
0
LINE
8
BLACK
6
CONTINUOUS
10
100.854
20
-94.4034
11
100.873
21
-94.4069
0
LINE
8
BLACK
6
CONTINUOUS
10
100.873
20
-94.4069
11
100.879
21
-94.4102
0
LINE
8
BLACK
6
CONTINUOUS
10
100.879
20
-94.4102
11
100.885
21
-94.412
0
LINE
8
BLACK
6
CONTINUOUS
10
100.885
20
-94.412
11
100.902
21
-94.4234
0
LINE
8
BLACK
6
CONTINUOUS
10
100.902
20
-94.4234
11
100.919
21
-94.4333
0
LINE
8
BLACK
6
CONTINUOUS
10
100.919
20
-94.4333
11
100.932
21
-94.4486
0
LINE
8
BLACK
6
CONTINUOUS
10
100.932
20
-94.4486
11
101.601
21
-95.1177
0
LINE
8
BLACK
6
CONTINUOUS
10
101.601
20
-95.1177
11
101.616
21
-95.1305
0
LINE
8
BLACK
6
CONTINUOUS
10
101.616
20
-95.1305
11
101.626
21
-95.1477
0
LINE
8
BLACK
6
CONTINUOUS
10
101.626
20
-95.1477
11
101.637
21
-95.164
0
LINE
8
BLACK
6
CONTINUOUS
10
101.637
20
-95.164
11
101.639
21
-95.1705
0
LINE
8
BLACK
6
CONTINUOUS
10
101.639
20
-95.1705
11
101.643
21
-95.1763
0
LINE
8
BLACK
6
CONTINUOUS
10
101.643
20
-95.1763
11
101.646
21
-95.1959
0
LINE
8
BLACK
6
CONTINUOUS
10
101.646
20
-95.1959
11
101.651
21
-95.2151
0
LINE
8
BLACK
6
CONTINUOUS
10
101.651
20
-95.2151
11
101.649
21
-95.2349
0
LINE
8
BLACK
6
CONTINUOUS
10
101.649
20
-95.2349
11
101.649
21
-97.3296
0
LINE
8
BLACK
6
CONTINUOUS
10
101.649
20
-97.3296
11
101.651
21
-97.3494
0
LINE
8
BLACK
6
CONTINUOUS
10
101.651
20
-97.3494
11
101.646
21
-97.3686
0
LINE
8
BLACK
6
CONTINUOUS
10
101.646
20
-97.3686
11
101.643
21
-97.3882
0
LINE
8
BLACK
6
CONTINUOUS
10
101.643
20
-97.3882
11
101.639
21
-97.394
0
LINE
8
BLACK
6
CONTINUOUS
10
101.639
20
-97.394
11
101.637
21
-97.4005
0
LINE
8
BLACK
6
CONTINUOUS
10
101.637
20
-97.4005
11
101.626
21
-97.4168
0
LINE
8
BLACK
6
CONTINUOUS
10
101.626
20
-97.4168
11
101.616
21
-97.434
0
LINE
8
BLACK
6
CONTINUOUS
10
101.616
20
-97.434
11
101.601
21
-97.4468
0
LINE
8
BLACK
6
CONTINUOUS
10
101.601
20
-97.4468
11
101.326
21
-97.7212
0
LINE
8
BLACK
6
CONTINUOUS
10
101.326
20
-97.7212
11
101.314
21
-97.7365
0
LINE
8
BLACK
6
CONTINUOUS
10
101.314
20
-97.7365
11
101.296
21
-97.7464
0
LINE
8
BLACK
6
CONTINUOUS
10
101.296
20
-97.7464
11
101.28
21
-97.7578
0
LINE
8
BLACK
6
CONTINUOUS
10
101.28
20
-97.7578
11
101.274
21
-97.7596
0
LINE
8
BLACK
6
CONTINUOUS
10
101.274
20
-97.7596
11
101.268
21
-97.7629
0
LINE
8
BLACK
6
CONTINUOUS
10
101.268
20
-97.7629
11
101.248
21
-97.7664
0
LINE
8
BLACK
6
CONTINUOUS
10
101.248
20
-97.7664
11
101.229
21
-97.7715
0
LINE
8
BLACK
6
CONTINUOUS
10
101.229
20
-97.7715
11
101.209
21
-97.7698
0
LINE
8
BLACK
6
CONTINUOUS
10
101.209
20
-97.7698
11
101.021
21
-97.7698
0
LINE
8
BLACK
6
CONTINUOUS
10
101.021
20
-97.7698
11
101.002
21
-97.8229
0
LINE
8
BLACK
6
CONTINUOUS
10
101.002
20
-97.8229
11
100.911
21
-97.931
0
LINE
8
BLACK
6
CONTINUOUS
10
100.911
20
-97.931
11
100.789
21
-98.0015
0
LINE
8
BLACK
6
CONTINUOUS
10
100.789
20
-98.0015
11
100.65
21
-98.026
0
LINE
8
BLACK
6
CONTINUOUS
10
100.65
20
-98.026
11
100.511
21
-98.0015
0
LINE
8
BLACK
6
CONTINUOUS
10
100.511
20
-98.0015
11
100.389
21
-97.931
0
LINE
8
BLACK
6
CONTINUOUS
10
100.389
20
-97.931
11
100.298
21
-97.8229
0
LINE
8
BLACK
6
CONTINUOUS
10
100.298
20
-97.8229
11
100.25
21
-97.6903
0
LINE
8
BLACK
6
CONTINUOUS
10
100.25
20
-97.6903
11
100.25
21
-97.5493
0
LINE
8
BLACK
6
CONTINUOUS
10
100.25
20
-97.5493
11
100.298
21
-97.4167
0
LINE
8
BLACK
6
CONTINUOUS
10
100.298
20
-97.4167
11
100.389
21
-97.3087
0
LINE
8
BLACK
6
CONTINUOUS
10
100.389
20
-97.3087
11
100.511
21
-97.2381
0
LINE
8
BLACK
6
CONTINUOUS
10
100.511
20
-97.2381
11
100.65
21
-97.2136
0
LINE
8
BLACK
6
CONTINUOUS
10
100.65
20
-97.2136
11
100.789
21
-97.2381
0
LINE
8
BLACK
6
CONTINUOUS
10
100.789
20
-97.2381
11
100.911
21
-97.3087
0
LINE
8
BLACK
6
CONTINUOUS
10
100.911
20
-97.3087
11
101.002
21
-97.4167
0
LINE
8
BLACK
6
CONTINUOUS
10
101.002
20
-97.4167
11
101.021
21
-97.4698
0
LINE
8
BLACK
6
CONTINUOUS
10
101.021
20
-97.4698
11
101.154
21
-97.4698
0
LINE
8
BLACK
6
CONTINUOUS
10
101.154
20
-97.4698
11
101.349
21
-97.274
0
LINE
8
BLACK
6
CONTINUOUS
10
101.349
20
-97.274
11
101.349
21
-95.2905
0
LINE
8
BLACK
6
CONTINUOUS
10
101.349
20
-95.2905
11
100.759
21
-94.7
0
LINE
8
BLACK
6
CONTINUOUS
10
100.759
20
-94.7
11
99.95
21
-94.7
0
LINE
8
BLACK
6
CONTINUOUS
10
99.95
20
-94.7
11
99.95
21
-94.875
0
LINE
8
BLACK
6
CONTINUOUS
10
99.95
20
-94.875
11
98.35
21
-94.875
0
LINE
8
BLACK
6
CONTINUOUS
10
98.35
20
-94.875
11
98.35
21
-94.325
0
LINE
8
BLACK
6
CONTINUOUS
10
98.35
20
-94.325
11
99.95
21
-94.325
0
LINE
8
BLACK
6
CONTINUOUS
10
99.95
20
-94.325
11
99.95
21
-94.4
0
LINE
8
BLACK
6
CONTINUOUS
10
136.439
20
-96.9183
11
136.561
21
-96.9889
0
LINE
8
BLACK
6
CONTINUOUS
10
136.561
20
-96.9889
11
136.652
21
-97.0969
0
LINE
8
BLACK
6
CONTINUOUS
10
136.652
20
-97.0969
11
136.7
21
-97.2295
0
LINE
8
BLACK
6
CONTINUOUS
10
136.7
20
-97.2295
11
136.7
21
-97.3705
0
LINE
8
BLACK
6
CONTINUOUS
10
136.7
20
-97.3705
11
136.652
21
-97.5031
0
LINE
8
BLACK
6
CONTINUOUS
10
136.652
20
-97.5031
11
136.561
21
-97.6111
0
LINE
8
BLACK
6
CONTINUOUS
10
136.561
20
-97.6111
11
136.439
21
-97.6817
0
LINE
8
BLACK
6
CONTINUOUS
10
136.439
20
-97.6817
11
136.3
21
-97.7062
0
LINE
8
BLACK
6
CONTINUOUS
10
136.3
20
-97.7062
11
136.161
21
-97.6817
0
LINE
8
BLACK
6
CONTINUOUS
10
136.161
20
-97.6817
11
136.039
21
-97.6111
0
LINE
8
BLACK
6
CONTINUOUS
10
136.039
20
-97.6111
11
135.948
21
-97.5031
0
LINE
8
BLACK
6
CONTINUOUS
10
135.948
20
-97.5031
11
135.9
21
-97.3705
0
LINE
8
BLACK
6
CONTINUOUS
10
135.9
20
-97.3705
11
135.9
21
-97.2295
0
LINE
8
BLACK
6
CONTINUOUS
10
135.9
20
-97.2295
11
135.948
21
-97.0969
0
LINE
8
BLACK
6
CONTINUOUS
10
135.948
20
-97.0969
11
136.039
21
-96.9889
0
LINE
8
BLACK
6
CONTINUOUS
10
136.039
20
-96.9889
11
136.161
21
-96.9183
0
LINE
8
BLACK
6
CONTINUOUS
10
136.161
20
-96.9183
11
136.3
21
-96.8938
0
LINE
8
BLACK
6
CONTINUOUS
10
136.3
20
-96.8938
11
136.439
21
-96.9183
0
LINE
8
BLACK
6
CONTINUOUS
10
101.675
20
-92.35
11
101.55
21
-92.35
0
LINE
8
BLACK
6
CONTINUOUS
10
101.55
20
-92.35
11
101.55
21
-92.4036
0
LINE
8
BLACK
6
CONTINUOUS
10
101.55
20
-92.4036
11
103.951
21
-94.805
0
LINE
8
BLACK
6
CONTINUOUS
10
103.951
20
-94.805
11
103.967
21
-94.8178
0
LINE
8
BLACK
6
CONTINUOUS
10
103.967
20
-94.8178
11
103.977
21
-94.835
0
LINE
8
BLACK
6
CONTINUOUS
10
103.977
20
-94.835
11
103.988
21
-94.8513
0
LINE
8
BLACK
6
CONTINUOUS
10
103.988
20
-94.8513
11
103.99
21
-94.8578
0
LINE
8
BLACK
6
CONTINUOUS
10
103.99
20
-94.8578
11
103.993
21
-94.8636
0
LINE
8
BLACK
6
CONTINUOUS
10
103.993
20
-94.8636
11
103.997
21
-94.8832
0
LINE
8
BLACK
6
CONTINUOUS
10
103.997
20
-94.8832
11
104.002
21
-94.9024
0
LINE
8
BLACK
6
CONTINUOUS
10
104.002
20
-94.9024
11
104
21
-94.9222
0
LINE
8
BLACK
6
CONTINUOUS
10
104
20
-94.9222
11
104
21
-96.8879
0
LINE
8
BLACK
6
CONTINUOUS
10
104
20
-96.8879
11
104.042
21
-96.9295
0
LINE
8
BLACK
6
CONTINUOUS
10
104.042
20
-96.9295
11
104.061
21
-96.9183
0
LINE
8
BLACK
6
CONTINUOUS
10
104.061
20
-96.9183
11
104.2
21
-96.8938
0
LINE
8
BLACK
6
CONTINUOUS
10
104.2
20
-96.8938
11
104.339
21
-96.9183
0
LINE
8
BLACK
6
CONTINUOUS
10
104.339
20
-96.9183
11
104.461
21
-96.9889
0
LINE
8
BLACK
6
CONTINUOUS
10
104.461
20
-96.9889
11
104.552
21
-97.0969
0
LINE
8
BLACK
6
CONTINUOUS
10
104.552
20
-97.0969
11
104.6
21
-97.2295
0
LINE
8
BLACK
6
CONTINUOUS
10
104.6
20
-97.2295
11
104.6
21
-97.3705
0
LINE
8
BLACK
6
CONTINUOUS
10
104.6
20
-97.3705
11
104.552
21
-97.5031
0
LINE
8
BLACK
6
CONTINUOUS
10
104.552
20
-97.5031
11
104.461
21
-97.6111
0
LINE
8
BLACK
6
CONTINUOUS
10
104.461
20
-97.6111
11
104.339
21
-97.6817
0
LINE
8
BLACK
6
CONTINUOUS
10
104.339
20
-97.6817
11
104.2
21
-97.7062
0
LINE
8
BLACK
6
CONTINUOUS
10
104.2
20
-97.7062
11
104.061
21
-97.6817
0
LINE
8
BLACK
6
CONTINUOUS
10
104.061
20
-97.6817
11
103.939
21
-97.6111
0
LINE
8
BLACK
6
CONTINUOUS
10
103.939
20
-97.6111
11
103.848
21
-97.5031
0
LINE
8
BLACK
6
CONTINUOUS
10
103.848
20
-97.5031
11
103.8
21
-97.3705
0
LINE
8
BLACK
6
CONTINUOUS
10
103.8
20
-97.3705
11
103.8
21
-97.2295
0
LINE
8
BLACK
6
CONTINUOUS
10
103.8
20
-97.2295
11
103.831
21
-97.1434
0
LINE
8
BLACK
6
CONTINUOUS
10
103.831
20
-97.1434
11
103.749
21
-97.0607
0
LINE
8
BLACK
6
CONTINUOUS
10
103.749
20
-97.0607
11
103.733
21
-97.0479
0
LINE
8
BLACK
6
CONTINUOUS
10
103.733
20
-97.0479
11
103.723
21
-97.0307
0
LINE
8
BLACK
6
CONTINUOUS
10
103.723
20
-97.0307
11
103.712
21
-97.0144
0
LINE
8
BLACK
6
CONTINUOUS
10
103.712
20
-97.0144
11
103.71
21
-97.0079
0
LINE
8
BLACK
6
CONTINUOUS
10
103.71
20
-97.0079
11
103.707
21
-97.0021
0
LINE
8
BLACK
6
CONTINUOUS
10
103.707
20
-97.0021
11
103.703
21
-96.9825
0
LINE
8
BLACK
6
CONTINUOUS
10
103.703
20
-96.9825
11
103.698
21
-96.9633
0
LINE
8
BLACK
6
CONTINUOUS
10
103.698
20
-96.9633
11
103.7
21
-96.9435
0
LINE
8
BLACK
6
CONTINUOUS
10
103.7
20
-96.9435
11
103.7
21
-94.9778
0
LINE
8
BLACK
6
CONTINUOUS
10
103.7
20
-94.9778
11
101.299
21
-92.5764
0
LINE
8
BLACK
6
CONTINUOUS
10
101.299
20
-92.5764
11
101.283
21
-92.5636
0
LINE
8
BLACK
6
CONTINUOUS
10
101.283
20
-92.5636
11
101.273
21
-92.5464
0
LINE
8
BLACK
6
CONTINUOUS
10
101.273
20
-92.5464
11
101.262
21
-92.5301
0
LINE
8
BLACK
6
CONTINUOUS
10
101.262
20
-92.5301
11
101.26
21
-92.5236
0
LINE
8
BLACK
6
CONTINUOUS
10
101.26
20
-92.5236
11
101.257
21
-92.5178
0
LINE
8
BLACK
6
CONTINUOUS
10
101.257
20
-92.5178
11
101.253
21
-92.4982
0
LINE
8
BLACK
6
CONTINUOUS
10
101.253
20
-92.4982
11
101.248
21
-92.479
0
LINE
8
BLACK
6
CONTINUOUS
10
101.248
20
-92.479
11
101.25
21
-92.4591
0
LINE
8
BLACK
6
CONTINUOUS
10
101.25
20
-92.4591
11
101.25
21
-92.35
0
LINE
8
BLACK
6
CONTINUOUS
10
101.25
20
-92.35
11
101.125
21
-92.35
0
LINE
8
BLACK
6
CONTINUOUS
10
101.125
20
-92.35
11
101.125
21
-90.75
0
LINE
8
BLACK
6
CONTINUOUS
10
101.125
20
-90.75
11
101.675
21
-90.75
0
LINE
8
BLACK
6
CONTINUOUS
10
101.675
20
-90.75
11
101.675
21
-92.35
0
LINE
8
BLACK
6
CONTINUOUS
10
111.939
20
-92.1183
11
112.061
21
-92.1889
0
LINE
8
BLACK
6
CONTINUOUS
10
112.061
20
-92.1889
11
112.152
21
-92.2969
0
LINE
8
BLACK
6
CONTINUOUS
10
112.152
20
-92.2969
11
112.2
21
-92.4295
0
LINE
8
BLACK
6
CONTINUOUS
10
112.2
20
-92.4295
11
112.2
21
-92.5705
0
LINE
8
BLACK
6
CONTINUOUS
10
112.2
20
-92.5705
11
112.152
21
-92.7031
0
LINE
8
BLACK
6
CONTINUOUS
10
112.152
20
-92.7031
11
112.061
21
-92.8111
0
LINE
8
BLACK
6
CONTINUOUS
10
112.061
20
-92.8111
11
111.939
21
-92.8817
0
LINE
8
BLACK
6
CONTINUOUS
10
111.939
20
-92.8817
11
111.8
21
-92.9062
0
LINE
8
BLACK
6
CONTINUOUS
10
111.8
20
-92.9062
11
111.695
21
-92.8877
0
LINE
8
BLACK
6
CONTINUOUS
10
111.695
20
-92.8877
11
111.548
21
-93.0352
0
LINE
8
BLACK
6
CONTINUOUS
10
111.548
20
-93.0352
11
111.531
21
-93.0556
0
LINE
8
BLACK
6
CONTINUOUS
10
111.531
20
-93.0556
11
111.508
21
-93.0688
0
LINE
8
BLACK
6
CONTINUOUS
10
111.508
20
-93.0688
11
111.486
21
-93.0841
0
LINE
8
BLACK
6
CONTINUOUS
10
111.486
20
-93.0841
11
111.477
21
-93.0864
0
LINE
8
BLACK
6
CONTINUOUS
10
111.477
20
-93.0864
11
111.469
21
-93.0908
0
LINE
8
BLACK
6
CONTINUOUS
10
111.469
20
-93.0908
11
111.443
21
-93.0954
0
LINE
8
BLACK
6
CONTINUOUS
10
111.443
20
-93.0954
11
111.418
21
-93.1023
0
LINE
8
BLACK
6
CONTINUOUS
10
111.418
20
-93.1023
11
111.391
21
-93.1
0
LINE
8
BLACK
6
CONTINUOUS
10
111.391
20
-93.1
11
111.183
21
-93.1
0
LINE
8
BLACK
6
CONTINUOUS
10
111.183
20
-93.1
11
109.75
21
-94.5328
0
LINE
8
BLACK
6
CONTINUOUS
10
109.75
20
-94.5328
11
109.75
21
-94.6955
0
LINE
8
BLACK
6
CONTINUOUS
10
109.75
20
-94.6955
11
109.752
21
-94.7219
0
LINE
8
BLACK
6
CONTINUOUS
10
109.752
20
-94.7219
11
109.745
21
-94.7476
0
LINE
8
BLACK
6
CONTINUOUS
10
109.745
20
-94.7476
11
109.741
21
-94.7737
0
LINE
8
BLACK
6
CONTINUOUS
10
109.741
20
-94.7737
11
109.736
21
-94.7814
0
LINE
8
BLACK
6
CONTINUOUS
10
109.736
20
-94.7814
11
109.734
21
-94.7901
0
LINE
8
BLACK
6
CONTINUOUS
10
109.734
20
-94.7901
11
109.719
21
-94.8118
0
LINE
8
BLACK
6
CONTINUOUS
10
109.719
20
-94.8118
11
109.706
21
-94.8348
0
LINE
8
BLACK
6
CONTINUOUS
10
109.706
20
-94.8348
11
109.685
21
-94.8518
0
LINE
8
BLACK
6
CONTINUOUS
10
109.685
20
-94.8518
11
109.3
21
-95.2371
0
LINE
8
BLACK
6
CONTINUOUS
10
109.3
20
-95.2371
11
109.3
21
-96.7413
0
LINE
8
BLACK
6
CONTINUOUS
10
109.3
20
-96.7413
11
109.302
21
-96.7677
0
LINE
8
BLACK
6
CONTINUOUS
10
109.302
20
-96.7677
11
109.295
21
-96.7933
0
LINE
8
BLACK
6
CONTINUOUS
10
109.295
20
-96.7933
11
109.291
21
-96.8195
0
LINE
8
BLACK
6
CONTINUOUS
10
109.291
20
-96.8195
11
109.286
21
-96.8272
0
LINE
8
BLACK
6
CONTINUOUS
10
109.286
20
-96.8272
11
109.284
21
-96.8358
0
LINE
8
BLACK
6
CONTINUOUS
10
109.284
20
-96.8358
11
109.269
21
-96.8576
0
LINE
8
BLACK
6
CONTINUOUS
10
109.269
20
-96.8576
11
109.256
21
-96.8805
0
LINE
8
BLACK
6
CONTINUOUS
10
109.256
20
-96.8805
11
109.235
21
-96.8976
0
LINE
8
BLACK
6
CONTINUOUS
10
109.235
20
-96.8976
11
108.998
21
-97.1352
0
LINE
8
BLACK
6
CONTINUOUS
10
108.998
20
-97.1352
11
108.981
21
-97.1556
0
LINE
8
BLACK
6
CONTINUOUS
10
108.981
20
-97.1556
11
108.958
21
-97.1688
0
LINE
8
BLACK
6
CONTINUOUS
10
108.958
20
-97.1688
11
108.936
21
-97.1841
0
LINE
8
BLACK
6
CONTINUOUS
10
108.936
20
-97.1841
11
108.927
21
-97.1864
0
LINE
8
BLACK
6
CONTINUOUS
10
108.927
20
-97.1864
11
108.919
21
-97.1908
0
LINE
8
BLACK
6
CONTINUOUS
10
108.919
20
-97.1908
11
108.893
21
-97.1954
0
LINE
8
BLACK
6
CONTINUOUS
10
108.893
20
-97.1954
11
108.868
21
-97.2023
0
LINE
8
BLACK
6
CONTINUOUS
10
108.868
20
-97.2023
11
108.841
21
-97.2
0
LINE
8
BLACK
6
CONTINUOUS
10
108.841
20
-97.2
11
108.45
21
-97.2
0
LINE
8
BLACK
6
CONTINUOUS
10
108.45
20
-97.2
11
108.45
21
-97.275
0
LINE
8
BLACK
6
CONTINUOUS
10
108.45
20
-97.275
11
106.85
21
-97.275
0
LINE
8
BLACK
6
CONTINUOUS
10
106.85
20
-97.275
11
106.85
21
-96.725
0
LINE
8
BLACK
6
CONTINUOUS
10
106.85
20
-96.725
11
108.45
21
-96.725
0
LINE
8
BLACK
6
CONTINUOUS
10
108.45
20
-96.725
11
108.45
21
-96.8
0
LINE
8
BLACK
6
CONTINUOUS
10
108.45
20
-96.8
11
108.767
21
-96.8
0
LINE
8
BLACK
6
CONTINUOUS
10
108.767
20
-96.8
11
108.9
21
-96.6672
0
LINE
8
BLACK
6
CONTINUOUS
10
108.9
20
-96.6672
11
108.9
21
-95.163
0
LINE
8
BLACK
6
CONTINUOUS
10
108.9
20
-95.163
11
108.898
21
-95.1366
0
LINE
8
BLACK
6
CONTINUOUS
10
108.898
20
-95.1366
11
108.905
21
-95.1109
0
LINE
8
BLACK
6
CONTINUOUS
10
108.905
20
-95.1109
11
108.909
21
-95.0848
0
LINE
8
BLACK
6
CONTINUOUS
10
108.909
20
-95.0848
11
108.914
21
-95.0771
0
LINE
8
BLACK
6
CONTINUOUS
10
108.914
20
-95.0771
11
108.916
21
-95.0684
0
LINE
8
BLACK
6
CONTINUOUS
10
108.916
20
-95.0684
11
108.931
21
-95.0467
0
LINE
8
BLACK
6
CONTINUOUS
10
108.931
20
-95.0467
11
108.944
21
-95.0237
0
LINE
8
BLACK
6
CONTINUOUS
10
108.944
20
-95.0237
11
108.965
21
-95.0067
0
LINE
8
BLACK
6
CONTINUOUS
10
108.965
20
-95.0067
11
109.35
21
-94.6214
0
LINE
8
BLACK
6
CONTINUOUS
10
109.35
20
-94.6214
11
109.35
21
-94.4587
0
LINE
8
BLACK
6
CONTINUOUS
10
109.35
20
-94.4587
11
109.348
21
-94.4323
0
LINE
8
BLACK
6
CONTINUOUS
10
109.348
20
-94.4323
11
109.355
21
-94.4066
0
LINE
8
BLACK
6
CONTINUOUS
10
109.355
20
-94.4066
11
109.359
21
-94.3805
0
LINE
8
BLACK
6
CONTINUOUS
10
109.359
20
-94.3805
11
109.364
21
-94.3728
0
LINE
8
BLACK
6
CONTINUOUS
10
109.364
20
-94.3728
11
109.366
21
-94.3642
0
LINE
8
BLACK
6
CONTINUOUS
10
109.366
20
-94.3642
11
109.381
21
-94.3424
0
LINE
8
BLACK
6
CONTINUOUS
10
109.381
20
-94.3424
11
109.394
21
-94.3194
0
LINE
8
BLACK
6
CONTINUOUS
10
109.394
20
-94.3194
11
109.415
21
-94.3024
0
LINE
8
BLACK
6
CONTINUOUS
10
109.415
20
-94.3024
11
110.952
21
-92.7648
0
LINE
8
BLACK
6
CONTINUOUS
10
110.952
20
-92.7648
11
110.969
21
-92.7444
0
LINE
8
BLACK
6
CONTINUOUS
10
110.969
20
-92.7444
11
110.992
21
-92.7312
0
LINE
8
BLACK
6
CONTINUOUS
10
110.992
20
-92.7312
11
111.014
21
-92.7159
0
LINE
8
BLACK
6
CONTINUOUS
10
111.014
20
-92.7159
11
111.023
21
-92.7136
0
LINE
8
BLACK
6
CONTINUOUS
10
111.023
20
-92.7136
11
111.031
21
-92.7092
0
LINE
8
BLACK
6
CONTINUOUS
10
111.031
20
-92.7092
11
111.057
21
-92.7046
0
LINE
8
BLACK
6
CONTINUOUS
10
111.057
20
-92.7046
11
111.082
21
-92.6977
0
LINE
8
BLACK
6
CONTINUOUS
10
111.082
20
-92.6977
11
111.109
21
-92.7
0
LINE
8
BLACK
6
CONTINUOUS
10
111.109
20
-92.7
11
111.317
21
-92.7
0
LINE
8
BLACK
6
CONTINUOUS
10
111.317
20
-92.7
11
111.412
21
-92.6047
0
LINE
8
BLACK
6
CONTINUOUS
10
111.412
20
-92.6047
11
111.4
21
-92.5705
0
LINE
8
BLACK
6
CONTINUOUS
10
111.4
20
-92.5705
11
111.4
21
-92.4295
0
LINE
8
BLACK
6
CONTINUOUS
10
111.4
20
-92.4295
11
111.448
21
-92.2969
0
LINE
8
BLACK
6
CONTINUOUS
10
111.448
20
-92.2969
11
111.539
21
-92.1889
0
LINE
8
BLACK
6
CONTINUOUS
10
111.539
20
-92.1889
11
111.661
21
-92.1183
0
LINE
8
BLACK
6
CONTINUOUS
10
111.661
20
-92.1183
11
111.8
21
-92.0938
0
LINE
8
BLACK
6
CONTINUOUS
10
111.8
20
-92.0938
11
111.939
21
-92.1183
0
LINE
8
BLACK
6
CONTINUOUS
10
99.95
20
-97.275
11
98.35
21
-97.275
0
LINE
8
BLACK
6
CONTINUOUS
10
98.35
20
-97.275
11
98.35
21
-96.725
0
LINE
8
BLACK
6
CONTINUOUS
10
98.35
20
-96.725
11
99.95
21
-96.725
0
LINE
8
BLACK
6
CONTINUOUS
10
99.95
20
-96.725
11
99.95
21
-97.275
0
LINE
8
BLACK
6
CONTINUOUS
10
99.95
20
-96.05
11
100.059
21
-96.05
0
LINE
8
BLACK
6
CONTINUOUS
10
100.059
20
-96.05
11
100.079
21
-96.0483
0
LINE
8
BLACK
6
CONTINUOUS
10
100.079
20
-96.0483
11
100.098
21
-96.0534
0
LINE
8
BLACK
6
CONTINUOUS
10
100.098
20
-96.0534
11
100.118
21
-96.0569
0
LINE
8
BLACK
6
CONTINUOUS
10
100.118
20
-96.0569
11
100.124
21
-96.0602
0
LINE
8
BLACK
6
CONTINUOUS
10
100.124
20
-96.0602
11
100.13
21
-96.062
0
LINE
8
BLACK
6
CONTINUOUS
10
100.13
20
-96.062
11
100.146
21
-96.0734
0
LINE
8
BLACK
6
CONTINUOUS
10
100.146
20
-96.0734
11
100.164
21
-96.0833
0
LINE
8
BLACK
6
CONTINUOUS
10
100.164
20
-96.0833
11
100.176
21
-96.0986
0
LINE
8
BLACK
6
CONTINUOUS
10
100.176
20
-96.0986
11
100.312
21
-96.2341
0
LINE
8
BLACK
6
CONTINUOUS
10
100.312
20
-96.2341
11
100.365
21
-96.171
0
LINE
8
BLACK
6
CONTINUOUS
10
100.365
20
-96.171
11
100.487
21
-96.1004
0
LINE
8
BLACK
6
CONTINUOUS
10
100.487
20
-96.1004
11
100.626
21
-96.0759
0
LINE
8
BLACK
6
CONTINUOUS
10
100.626
20
-96.0759
11
100.765
21
-96.1004
0
LINE
8
BLACK
6
CONTINUOUS
10
100.765
20
-96.1004
11
100.887
21
-96.171
0
LINE
8
BLACK
6
CONTINUOUS
10
100.887
20
-96.171
11
100.978
21
-96.279
0
LINE
8
BLACK
6
CONTINUOUS
10
100.978
20
-96.279
11
101.026
21
-96.4116
0
LINE
8
BLACK
6
CONTINUOUS
10
101.026
20
-96.4116
11
101.026
21
-96.5526
0
LINE
8
BLACK
6
CONTINUOUS
10
101.026
20
-96.5526
11
100.978
21
-96.6852
0
LINE
8
BLACK
6
CONTINUOUS
10
100.978
20
-96.6852
11
100.887
21
-96.7932
0
LINE
8
BLACK
6
CONTINUOUS
10
100.887
20
-96.7932
11
100.765
21
-96.8638
0
LINE
8
BLACK
6
CONTINUOUS
10
100.765
20
-96.8638
11
100.626
21
-96.8883
0
LINE
8
BLACK
6
CONTINUOUS
10
100.626
20
-96.8883
11
100.487
21
-96.8638
0
LINE
8
BLACK
6
CONTINUOUS
10
100.487
20
-96.8638
11
100.365
21
-96.7932
0
LINE
8
BLACK
6
CONTINUOUS
10
100.365
20
-96.7932
11
100.274
21
-96.6852
0
LINE
8
BLACK
6
CONTINUOUS
10
100.274
20
-96.6852
11
100.237
21
-96.5837
0
LINE
8
BLACK
6
CONTINUOUS
10
100.237
20
-96.5837
11
100.237
21
-96.5835
0
LINE
8
BLACK
6
CONTINUOUS
10
100.237
20
-96.5835
11
100.004
21
-96.35
0
LINE
8
BLACK
6
CONTINUOUS
10
100.004
20
-96.35
11
99.95
21
-96.35
0
LINE
8
BLACK
6
CONTINUOUS
10
99.95
20
-96.35
11
99.95
21
-96.475
0
LINE
8
BLACK
6
CONTINUOUS
10
99.95
20
-96.475
11
98.35
21
-96.475
0
LINE
8
BLACK
6
CONTINUOUS
10
98.35
20
-96.475
11
98.35
21
-95.925
0
LINE
8
BLACK
6
CONTINUOUS
10
98.35
20
-95.925
11
99.95
21
-95.925
0
LINE
8
BLACK
6
CONTINUOUS
10
99.95
20
-95.925
11
99.95
21
-96.05
0
LINE
8
BLACK
6
CONTINUOUS
10
102.611
20
-96.0148
11
102.701
21
-96.1229
0
LINE
8
BLACK
6
CONTINUOUS
10
102.701
20
-96.1229
11
102.749
21
-96.2554
0
LINE
8
BLACK
6
CONTINUOUS
10
102.749
20
-96.2554
11
102.749
21
-96.3965
0
LINE
8
BLACK
6
CONTINUOUS
10
102.749
20
-96.3965
11
102.701
21
-96.529
0
LINE
8
BLACK
6
CONTINUOUS
10
102.701
20
-96.529
11
102.611
21
-96.6371
0
LINE
8
BLACK
6
CONTINUOUS
10
102.611
20
-96.6371
11
102.488
21
-96.7076
0
LINE
8
BLACK
6
CONTINUOUS
10
102.488
20
-96.7076
11
102.349
21
-96.7321
0
LINE
8
BLACK
6
CONTINUOUS
10
102.349
20
-96.7321
11
102.211
21
-96.7076
0
LINE
8
BLACK
6
CONTINUOUS
10
102.211
20
-96.7076
11
102.088
21
-96.6371
0
LINE
8
BLACK
6
CONTINUOUS
10
102.088
20
-96.6371
11
101.998
21
-96.529
0
LINE
8
BLACK
6
CONTINUOUS
10
101.998
20
-96.529
11
101.949
21
-96.3965
0
LINE
8
BLACK
6
CONTINUOUS
10
101.949
20
-96.3965
11
101.949
21
-96.2554
0
LINE
8
BLACK
6
CONTINUOUS
10
101.949
20
-96.2554
11
101.998
21
-96.1229
0
LINE
8
BLACK
6
CONTINUOUS
10
101.998
20
-96.1229
11
102.088
21
-96.0148
0
LINE
8
BLACK
6
CONTINUOUS
10
102.088
20
-96.0148
11
102.199
21
-95.9507
0
LINE
8
BLACK
6
CONTINUOUS
10
102.199
20
-95.9507
11
102.199
21
-95.7472
0
LINE
8
BLACK
6
CONTINUOUS
10
102.199
20
-95.7472
11
102.199
21
-95.7472
0
LINE
8
BLACK
6
CONTINUOUS
10
102.199
20
-95.7472
11
102.199
21
-95.292
0
LINE
8
BLACK
6
CONTINUOUS
10
102.199
20
-95.292
11
100.057
21
-93.15
0
LINE
8
BLACK
6
CONTINUOUS
10
100.057
20
-93.15
11
99.95
21
-93.15
0
LINE
8
BLACK
6
CONTINUOUS
10
99.95
20
-93.15
11
99.95
21
-93.275
0
LINE
8
BLACK
6
CONTINUOUS
10
99.95
20
-93.275
11
98.35
21
-93.275
0
LINE
8
BLACK
6
CONTINUOUS
10
98.35
20
-93.275
11
98.35
21
-92.725
0
LINE
8
BLACK
6
CONTINUOUS
10
98.35
20
-92.725
11
99.95
21
-92.725
0
LINE
8
BLACK
6
CONTINUOUS
10
99.95
20
-92.725
11
99.95
21
-92.85
0
LINE
8
BLACK
6
CONTINUOUS
10
99.95
20
-92.85
11
100.113
21
-92.85
0
LINE
8
BLACK
6
CONTINUOUS
10
100.113
20
-92.85
11
100.133
21
-92.8483
0
LINE
8
BLACK
6
CONTINUOUS
10
100.133
20
-92.8483
11
100.152
21
-92.8534
0
LINE
8
BLACK
6
CONTINUOUS
10
100.152
20
-92.8534
11
100.172
21
-92.8569
0
LINE
8
BLACK
6
CONTINUOUS
10
100.172
20
-92.8569
11
100.177
21
-92.8602
0
LINE
8
BLACK
6
CONTINUOUS
10
100.177
20
-92.8602
11
100.184
21
-92.862
0
LINE
8
BLACK
6
CONTINUOUS
10
100.184
20
-92.862
11
100.2
21
-92.8734
0
LINE
8
BLACK
6
CONTINUOUS
10
100.2
20
-92.8734
11
100.217
21
-92.8833
0
LINE
8
BLACK
6
CONTINUOUS
10
100.217
20
-92.8833
11
100.23
21
-92.8986
0
LINE
8
BLACK
6
CONTINUOUS
10
100.23
20
-92.8986
11
102.451
21
-95.1192
0
LINE
8
BLACK
6
CONTINUOUS
10
102.451
20
-95.1192
11
102.466
21
-95.132
0
LINE
8
BLACK
6
CONTINUOUS
10
102.466
20
-95.132
11
102.476
21
-95.1492
0
LINE
8
BLACK
6
CONTINUOUS
10
102.476
20
-95.1492
11
102.487
21
-95.1655
0
LINE
8
BLACK
6
CONTINUOUS
10
102.487
20
-95.1655
11
102.489
21
-95.172
0
LINE
8
BLACK
6
CONTINUOUS
10
102.489
20
-95.172
11
102.493
21
-95.1778
0
LINE
8
BLACK
6
CONTINUOUS
10
102.493
20
-95.1778
11
102.496
21
-95.1974
0
LINE
8
BLACK
6
CONTINUOUS
10
102.496
20
-95.1974
11
102.501
21
-95.2166
0
LINE
8
BLACK
6
CONTINUOUS
10
102.501
20
-95.2166
11
102.499
21
-95.2364
0
LINE
8
BLACK
6
CONTINUOUS
10
102.499
20
-95.2364
11
102.499
21
-95.9507
0
LINE
8
BLACK
6
CONTINUOUS
10
102.499
20
-95.9507
11
102.611
21
-96.0148
0
LINE
8
BLACK
6
CONTINUOUS
10
128.175
20
-93.175
11
127.333
21
-93.175
0
LINE
8
BLACK
6
CONTINUOUS
10
127.333
20
-93.175
11
124.923
21
-95.5852
0
LINE
8
BLACK
6
CONTINUOUS
10
124.923
20
-95.5852
11
124.906
21
-95.6056
0
LINE
8
BLACK
6
CONTINUOUS
10
124.906
20
-95.6056
11
124.883
21
-95.6188
0
LINE
8
BLACK
6
CONTINUOUS
10
124.883
20
-95.6188
11
124.861
21
-95.6341
0
LINE
8
BLACK
6
CONTINUOUS
10
124.861
20
-95.6341
11
124.852
21
-95.6364
0
LINE
8
BLACK
6
CONTINUOUS
10
124.852
20
-95.6364
11
124.844
21
-95.6408
0
LINE
8
BLACK
6
CONTINUOUS
10
124.844
20
-95.6408
11
124.818
21
-95.6454
0
LINE
8
BLACK
6
CONTINUOUS
10
124.818
20
-95.6454
11
124.793
21
-95.6523
0
LINE
8
BLACK
6
CONTINUOUS
10
124.793
20
-95.6523
11
124.766
21
-95.65
0
LINE
8
BLACK
6
CONTINUOUS
10
124.766
20
-95.65
11
124.375
21
-95.65
0
LINE
8
BLACK
6
CONTINUOUS
10
124.375
20
-95.65
11
124.375
21
-96.05
0
LINE
8
BLACK
6
CONTINUOUS
10
124.375
20
-96.05
11
123.625
21
-96.05
0
LINE
8
BLACK
6
CONTINUOUS
10
123.625
20
-96.05
11
123.625
21
-95.65
0
LINE
8
BLACK
6
CONTINUOUS
10
123.625
20
-95.65
11
122.5
21
-95.65
0
LINE
8
BLACK
6
CONTINUOUS
10
122.5
20
-95.65
11
122.5
21
-96.55
0
LINE
8
BLACK
6
CONTINUOUS
10
122.5
20
-96.55
11
120.4
21
-96.55
0
LINE
8
BLACK
6
CONTINUOUS
10
120.4
20
-96.55
11
120.4
21
-94.75
0
LINE
8
BLACK
6
CONTINUOUS
10
120.4
20
-94.75
11
122.5
21
-94.75
0
LINE
8
BLACK
6
CONTINUOUS
10
122.5
20
-94.75
11
122.5
21
-95.25
0
LINE
8
BLACK
6
CONTINUOUS
10
122.5
20
-95.25
11
123.625
21
-95.25
0
LINE
8
BLACK
6
CONTINUOUS
10
123.625
20
-95.25
11
123.625
21
-94.85
0
LINE
8
BLACK
6
CONTINUOUS
10
123.625
20
-94.85
11
124.375
21
-94.85
0
LINE
8
BLACK
6
CONTINUOUS
10
124.375
20
-94.85
11
124.375
21
-95.25
0
LINE
8
BLACK
6
CONTINUOUS
10
124.375
20
-95.25
11
124.692
21
-95.25
0
LINE
8
BLACK
6
CONTINUOUS
10
124.692
20
-95.25
11
126.825
21
-93.1172
0
LINE
8
BLACK
6
CONTINUOUS
10
126.825
20
-93.1172
11
126.825
21
-91.825
0
LINE
8
BLACK
6
CONTINUOUS
10
126.825
20
-91.825
11
128.175
21
-91.825
0
LINE
8
BLACK
6
CONTINUOUS
10
128.175
20
-91.825
11
128.175
21
-93.175
0
LINE
8
BLACK
6
CONTINUOUS
10
100.552
20
-95.0183
11
100.674
21
-95.0889
0
LINE
8
BLACK
6
CONTINUOUS
10
100.674
20
-95.0889
11
100.765
21
-95.1969
0
LINE
8
BLACK
6
CONTINUOUS
10
100.765
20
-95.1969
11
100.813
21
-95.3295
0
LINE
8
BLACK
6
CONTINUOUS
10
100.813
20
-95.3295
11
100.813
21
-95.4705
0
LINE
8
BLACK
6
CONTINUOUS
10
100.813
20
-95.4705
11
100.765
21
-95.6031
0
LINE
8
BLACK
6
CONTINUOUS
10
100.765
20
-95.6031
11
100.674
21
-95.7111
0
LINE
8
BLACK
6
CONTINUOUS
10
100.674
20
-95.7111
11
100.552
21
-95.7817
0
LINE
8
BLACK
6
CONTINUOUS
10
100.552
20
-95.7817
11
100.413
21
-95.8062
0
LINE
8
BLACK
6
CONTINUOUS
10
100.413
20
-95.8062
11
100.274
21
-95.7817
0
LINE
8
BLACK
6
CONTINUOUS
10
100.274
20
-95.7817
11
100.152
21
-95.7111
0
LINE
8
BLACK
6
CONTINUOUS
10
100.152
20
-95.7111
11
100.061
21
-95.6031
0
LINE
8
BLACK
6
CONTINUOUS
10
100.061
20
-95.6031
11
100.042
21
-95.55
0
LINE
8
BLACK
6
CONTINUOUS
10
100.042
20
-95.55
11
99.95
21
-95.55
0
LINE
8
BLACK
6
CONTINUOUS
10
99.95
20
-95.55
11
99.95
21
-95.675
0
LINE
8
BLACK
6
CONTINUOUS
10
99.95
20
-95.675
11
98.35
21
-95.675
0
LINE
8
BLACK
6
CONTINUOUS
10
98.35
20
-95.675
11
98.35
21
-95.125
0
LINE
8
BLACK
6
CONTINUOUS
10
98.35
20
-95.125
11
99.95
21
-95.125
0
LINE
8
BLACK
6
CONTINUOUS
10
99.95
20
-95.125
11
99.95
21
-95.25
0
LINE
8
BLACK
6
CONTINUOUS
10
99.95
20
-95.25
11
100.042
21
-95.25
0
LINE
8
BLACK
6
CONTINUOUS
10
100.042
20
-95.25
11
100.061
21
-95.1969
0
LINE
8
BLACK
6
CONTINUOUS
10
100.061
20
-95.1969
11
100.152
21
-95.0889
0
LINE
8
BLACK
6
CONTINUOUS
10
100.152
20
-95.0889
11
100.274
21
-95.0183
0
LINE
8
BLACK
6
CONTINUOUS
10
100.274
20
-95.0183
11
100.413
21
-94.9938
0
LINE
8
BLACK
6
CONTINUOUS
10
100.413
20
-94.9938
11
100.552
21
-95.0183
0
LINE
8
BLACK
6
CONTINUOUS
10
127.739
20
-95.0183
11
127.861
21
-95.0889
0
LINE
8
BLACK
6
CONTINUOUS
10
127.861
20
-95.0889
11
127.952
21
-95.1969
0
LINE
8
BLACK
6
CONTINUOUS
10
127.952
20
-95.1969
11
128
21
-95.3295
0
LINE
8
BLACK
6
CONTINUOUS
10
128
20
-95.3295
11
128
21
-95.4705
0
LINE
8
BLACK
6
CONTINUOUS
10
128
20
-95.4705
11
127.952
21
-95.6031
0
LINE
8
BLACK
6
CONTINUOUS
10
127.952
20
-95.6031
11
127.861
21
-95.7111
0
LINE
8
BLACK
6
CONTINUOUS
10
127.861
20
-95.7111
11
127.739
21
-95.7817
0
LINE
8
BLACK
6
CONTINUOUS
10
127.739
20
-95.7817
11
127.6
21
-95.8062
0
LINE
8
BLACK
6
CONTINUOUS
10
127.6
20
-95.8062
11
127.461
21
-95.7817
0
LINE
8
BLACK
6
CONTINUOUS
10
127.461
20
-95.7817
11
127.339
21
-95.7111
0
LINE
8
BLACK
6
CONTINUOUS
10
127.339
20
-95.7111
11
127.248
21
-95.6031
0
LINE
8
BLACK
6
CONTINUOUS
10
127.248
20
-95.6031
11
127.2
21
-95.4705
0
LINE
8
BLACK
6
CONTINUOUS
10
127.2
20
-95.4705
11
127.2
21
-95.3295
0
LINE
8
BLACK
6
CONTINUOUS
10
127.2
20
-95.3295
11
127.248
21
-95.1969
0
LINE
8
BLACK
6
CONTINUOUS
10
127.248
20
-95.1969
11
127.339
21
-95.0889
0
LINE
8
BLACK
6
CONTINUOUS
10
127.339
20
-95.0889
11
127.461
21
-95.0183
0
LINE
8
BLACK
6
CONTINUOUS
10
127.461
20
-95.0183
11
127.6
21
-94.9938
0
LINE
8
BLACK
6
CONTINUOUS
10
127.6
20
-94.9938
11
127.739
21
-95.0183
0
LINE
8
BLACK
6
CONTINUOUS
10
154.639
20
-94.9183
11
154.761
21
-94.9889
0
LINE
8
BLACK
6
CONTINUOUS
10
154.761
20
-94.9889
11
154.852
21
-95.0969
0
LINE
8
BLACK
6
CONTINUOUS
10
154.852
20
-95.0969
11
154.9
21
-95.2295
0
LINE
8
BLACK
6
CONTINUOUS
10
154.9
20
-95.2295
11
154.9
21
-95.3705
0
LINE
8
BLACK
6
CONTINUOUS
10
154.9
20
-95.3705
11
154.852
21
-95.5031
0
LINE
8
BLACK
6
CONTINUOUS
10
154.852
20
-95.5031
11
154.761
21
-95.6111
0
LINE
8
BLACK
6
CONTINUOUS
10
154.761
20
-95.6111
11
154.639
21
-95.6817
0
LINE
8
BLACK
6
CONTINUOUS
10
154.639
20
-95.6817
11
154.5
21
-95.7062
0
LINE
8
BLACK
6
CONTINUOUS
10
154.5
20
-95.7062
11
154.361
21
-95.6817
0
LINE
8
BLACK
6
CONTINUOUS
10
154.361
20
-95.6817
11
154.239
21
-95.6111
0
LINE
8
BLACK
6
CONTINUOUS
10
154.239
20
-95.6111
11
154.148
21
-95.5031
0
LINE
8
BLACK
6
CONTINUOUS
10
154.148
20
-95.5031
11
154.1
21
-95.3705
0
LINE
8
BLACK
6
CONTINUOUS
10
154.1
20
-95.3705
11
154.1
21
-95.2295
0
LINE
8
BLACK
6
CONTINUOUS
10
154.1
20
-95.2295
11
154.148
21
-95.0969
0
LINE
8
BLACK
6
CONTINUOUS
10
154.148
20
-95.0969
11
154.239
21
-94.9889
0
LINE
8
BLACK
6
CONTINUOUS
10
154.239
20
-94.9889
11
154.361
21
-94.9183
0
LINE
8
BLACK
6
CONTINUOUS
10
154.361
20
-94.9183
11
154.5
21
-94.8938
0
LINE
8
BLACK
6
CONTINUOUS
10
154.5
20
-94.8938
11
154.639
21
-94.9183
0
LINE
8
BLACK
6
CONTINUOUS
10
106.261
20
-94.9889
11
106.352
21
-95.0969
0
LINE
8
BLACK
6
CONTINUOUS
10
106.352
20
-95.0969
11
106.4
21
-95.2295
0
LINE
8
BLACK
6
CONTINUOUS
10
106.4
20
-95.2295
11
106.4
21
-95.3705
0
LINE
8
BLACK
6
CONTINUOUS
10
106.4
20
-95.3705
11
106.352
21
-95.5031
0
LINE
8
BLACK
6
CONTINUOUS
10
106.352
20
-95.5031
11
106.261
21
-95.6111
0
LINE
8
BLACK
6
CONTINUOUS
10
106.261
20
-95.6111
11
106.139
21
-95.6817
0
LINE
8
BLACK
6
CONTINUOUS
10
106.139
20
-95.6817
11
106
21
-95.7062
0
LINE
8
BLACK
6
CONTINUOUS
10
106
20
-95.7062
11
105.861
21
-95.6817
0
LINE
8
BLACK
6
CONTINUOUS
10
105.861
20
-95.6817
11
105.739
21
-95.6111
0
LINE
8
BLACK
6
CONTINUOUS
10
105.739
20
-95.6111
11
105.648
21
-95.5031
0
LINE
8
BLACK
6
CONTINUOUS
10
105.648
20
-95.5031
11
105.6
21
-95.3705
0
LINE
8
BLACK
6
CONTINUOUS
10
105.6
20
-95.3705
11
105.6
21
-95.2295
0
LINE
8
BLACK
6
CONTINUOUS
10
105.6
20
-95.2295
11
105.648
21
-95.0969
0
LINE
8
BLACK
6
CONTINUOUS
10
105.648
20
-95.0969
11
105.739
21
-94.9889
0
LINE
8
BLACK
6
CONTINUOUS
10
105.739
20
-94.9889
11
105.85
21
-94.9247
0
LINE
8
BLACK
6
CONTINUOUS
10
105.85
20
-94.9247
11
105.85
21
-94.7212
0
LINE
8
BLACK
6
CONTINUOUS
10
105.85
20
-94.7212
11
105.85
21
-94.7212
0
LINE
8
BLACK
6
CONTINUOUS
10
105.85
20
-94.7212
11
105.85
21
-94.3565
0
LINE
8
BLACK
6
CONTINUOUS
10
105.85
20
-94.3565
11
105.848
21
-94.3367
0
LINE
8
BLACK
6
CONTINUOUS
10
105.848
20
-94.3367
11
105.853
21
-94.3175
0
LINE
8
BLACK
6
CONTINUOUS
10
105.853
20
-94.3175
11
105.857
21
-94.2979
0
LINE
8
BLACK
6
CONTINUOUS
10
105.857
20
-94.2979
11
105.86
21
-94.2921
0
LINE
8
BLACK
6
CONTINUOUS
10
105.86
20
-94.2921
11
105.862
21
-94.2856
0
LINE
8
BLACK
6
CONTINUOUS
10
105.862
20
-94.2856
11
105.873
21
-94.2693
0
LINE
8
BLACK
6
CONTINUOUS
10
105.873
20
-94.2693
11
105.883
21
-94.2521
0
LINE
8
BLACK
6
CONTINUOUS
10
105.883
20
-94.2521
11
105.899
21
-94.2393
0
LINE
8
BLACK
6
CONTINUOUS
10
105.899
20
-94.2393
11
106.439
21
-93.6986
0
LINE
8
BLACK
6
CONTINUOUS
10
106.439
20
-93.6986
11
106.452
21
-93.6833
0
LINE
8
BLACK
6
CONTINUOUS
10
106.452
20
-93.6833
11
106.469
21
-93.6734
0
LINE
8
BLACK
6
CONTINUOUS
10
106.469
20
-93.6734
11
106.486
21
-93.662
0
LINE
8
BLACK
6
CONTINUOUS
10
106.486
20
-93.662
11
106.492
21
-93.6602
0
LINE
8
BLACK
6
CONTINUOUS
10
106.492
20
-93.6602
11
106.498
21
-93.6569
0
LINE
8
BLACK
6
CONTINUOUS
10
106.498
20
-93.6569
11
106.518
21
-93.6534
0
LINE
8
BLACK
6
CONTINUOUS
10
106.518
20
-93.6534
11
106.537
21
-93.6483
0
LINE
8
BLACK
6
CONTINUOUS
10
106.537
20
-93.6483
11
106.557
21
-93.65
0
LINE
8
BLACK
6
CONTINUOUS
10
106.557
20
-93.65
11
106.85
21
-93.65
0
LINE
8
BLACK
6
CONTINUOUS
10
106.85
20
-93.65
11
106.85
21
-93.525
0
LINE
8
BLACK
6
CONTINUOUS
10
106.85
20
-93.525
11
108.45
21
-93.525
0
LINE
8
BLACK
6
CONTINUOUS
10
108.45
20
-93.525
11
108.45
21
-94.075
0
LINE
8
BLACK
6
CONTINUOUS
10
108.45
20
-94.075
11
106.85
21
-94.075
0
LINE
8
BLACK
6
CONTINUOUS
10
106.85
20
-94.075
11
106.85
21
-93.95
0
LINE
8
BLACK
6
CONTINUOUS
10
106.85
20
-93.95
11
106.612
21
-93.95
0
LINE
8
BLACK
6
CONTINUOUS
10
106.612
20
-93.95
11
106.15
21
-94.4121
0
LINE
8
BLACK
6
CONTINUOUS
10
106.15
20
-94.4121
11
106.15
21
-94.9247
0
LINE
8
BLACK
6
CONTINUOUS
10
106.15
20
-94.9247
11
106.261
21
-94.9889
0
LINE
8
BLACK
6
CONTINUOUS
10
108.45
20
-95.675
11
106.85
21
-95.675
0
LINE
8
BLACK
6
CONTINUOUS
10
106.85
20
-95.675
11
106.85
21
-95.125
0
LINE
8
BLACK
6
CONTINUOUS
10
106.85
20
-95.125
11
108.45
21
-95.125
0
LINE
8
BLACK
6
CONTINUOUS
10
108.45
20
-95.125
11
108.45
21
-95.675
0
LINE
8
BLACK
6
CONTINUOUS
10
109.353
20
-92.5319
11
109.475
21
-92.6025
0
LINE
8
BLACK
6
CONTINUOUS
10
109.475
20
-92.6025
11
109.565
21
-92.7105
0
LINE
8
BLACK
6
CONTINUOUS
10
109.565
20
-92.7105
11
109.614
21
-92.8431
0
LINE
8
BLACK
6
CONTINUOUS
10
109.614
20
-92.8431
11
109.614
21
-92.9841
0
LINE
8
BLACK
6
CONTINUOUS
10
109.614
20
-92.9841
11
109.565
21
-93.1167
0
LINE
8
BLACK
6
CONTINUOUS
10
109.565
20
-93.1167
11
109.475
21
-93.2247
0
LINE
8
BLACK
6
CONTINUOUS
10
109.475
20
-93.2247
11
109.364
21
-93.2889
0
LINE
8
BLACK
6
CONTINUOUS
10
109.364
20
-93.2889
11
109.364
21
-93.4727
0
LINE
8
BLACK
6
CONTINUOUS
10
109.364
20
-93.4727
11
109.365
21
-93.4926
0
LINE
8
BLACK
6
CONTINUOUS
10
109.365
20
-93.4926
11
109.36
21
-93.5118
0
LINE
8
BLACK
6
CONTINUOUS
10
109.36
20
-93.5118
11
109.357
21
-93.5314
0
LINE
8
BLACK
6
CONTINUOUS
10
109.357
20
-93.5314
11
109.353
21
-93.5372
0
LINE
8
BLACK
6
CONTINUOUS
10
109.353
20
-93.5372
11
109.352
21
-93.5437
0
LINE
8
BLACK
6
CONTINUOUS
10
109.352
20
-93.5437
11
109.34
21
-93.5599
0
LINE
8
BLACK
6
CONTINUOUS
10
109.34
20
-93.5599
11
109.33
21
-93.5772
0
LINE
8
BLACK
6
CONTINUOUS
10
109.33
20
-93.5772
11
109.315
21
-93.59
0
LINE
8
BLACK
6
CONTINUOUS
10
109.315
20
-93.59
11
109.05
21
-93.855
0
LINE
8
BLACK
6
CONTINUOUS
10
109.05
20
-93.855
11
109.05
21
-94.4285
0
LINE
8
BLACK
6
CONTINUOUS
10
109.05
20
-94.4285
11
109.052
21
-94.4483
0
LINE
8
BLACK
6
CONTINUOUS
10
109.052
20
-94.4483
11
109.047
21
-94.4675
0
LINE
8
BLACK
6
CONTINUOUS
10
109.047
20
-94.4675
11
109.043
21
-94.4871
0
LINE
8
BLACK
6
CONTINUOUS
10
109.043
20
-94.4871
11
109.04
21
-94.4929
0
LINE
8
BLACK
6
CONTINUOUS
10
109.04
20
-94.4929
11
109.038
21
-94.4994
0
LINE
8
BLACK
6
CONTINUOUS
10
109.038
20
-94.4994
11
109.027
21
-94.5157
0
LINE
8
BLACK
6
CONTINUOUS
10
109.027
20
-94.5157
11
109.017
21
-94.5329
0
LINE
8
BLACK
6
CONTINUOUS
10
109.017
20
-94.5329
11
109.001
21
-94.5457
0
LINE
8
BLACK
6
CONTINUOUS
10
109.001
20
-94.5457
11
108.846
21
-94.7014
0
LINE
8
BLACK
6
CONTINUOUS
10
108.846
20
-94.7014
11
108.833
21
-94.7167
0
LINE
8
BLACK
6
CONTINUOUS
10
108.833
20
-94.7167
11
108.816
21
-94.7266
0
LINE
8
BLACK
6
CONTINUOUS
10
108.816
20
-94.7266
11
108.799
21
-94.738
0
LINE
8
BLACK
6
CONTINUOUS
10
108.799
20
-94.738
11
108.793
21
-94.7398
0
LINE
8
BLACK
6
CONTINUOUS
10
108.793
20
-94.7398
11
108.787
21
-94.7431
0
LINE
8
BLACK
6
CONTINUOUS
10
108.787
20
-94.7431
11
108.767
21
-94.7466
0
LINE
8
BLACK
6
CONTINUOUS
10
108.767
20
-94.7466
11
108.748
21
-94.7517
0
LINE
8
BLACK
6
CONTINUOUS
10
108.748
20
-94.7517
11
108.728
21
-94.75
0
LINE
8
BLACK
6
CONTINUOUS
10
108.728
20
-94.75
11
108.45
21
-94.75
0
LINE
8
BLACK
6
CONTINUOUS
10
108.45
20
-94.75
11
108.45
21
-94.875
0
LINE
8
BLACK
6
CONTINUOUS
10
108.45
20
-94.875
11
106.85
21
-94.875
0
LINE
8
BLACK
6
CONTINUOUS
10
106.85
20
-94.875
11
106.85
21
-94.325
0
LINE
8
BLACK
6
CONTINUOUS
10
106.85
20
-94.325
11
108.45
21
-94.325
0
LINE
8
BLACK
6
CONTINUOUS
10
108.45
20
-94.325
11
108.45
21
-94.45
0
LINE
8
BLACK
6
CONTINUOUS
10
108.45
20
-94.45
11
108.673
21
-94.45
0
LINE
8
BLACK
6
CONTINUOUS
10
108.673
20
-94.45
11
108.75
21
-94.3729
0
LINE
8
BLACK
6
CONTINUOUS
10
108.75
20
-94.3729
11
108.75
21
-93.7994
0
LINE
8
BLACK
6
CONTINUOUS
10
108.75
20
-93.7994
11
108.748
21
-93.7796
0
LINE
8
BLACK
6
CONTINUOUS
10
108.748
20
-93.7796
11
108.753
21
-93.7604
0
LINE
8
BLACK
6
CONTINUOUS
10
108.753
20
-93.7604
11
108.757
21
-93.7408
0
LINE
8
BLACK
6
CONTINUOUS
10
108.757
20
-93.7408
11
108.76
21
-93.735
0
LINE
8
BLACK
6
CONTINUOUS
10
108.76
20
-93.735
11
108.762
21
-93.7285
0
LINE
8
BLACK
6
CONTINUOUS
10
108.762
20
-93.7285
11
108.773
21
-93.7122
0
LINE
8
BLACK
6
CONTINUOUS
10
108.773
20
-93.7122
11
108.783
21
-93.695
0
LINE
8
BLACK
6
CONTINUOUS
10
108.783
20
-93.695
11
108.799
21
-93.6822
0
LINE
8
BLACK
6
CONTINUOUS
10
108.799
20
-93.6822
11
109.064
21
-93.4171
0
LINE
8
BLACK
6
CONTINUOUS
10
109.064
20
-93.4171
11
109.064
21
-93.2889
0
LINE
8
BLACK
6
CONTINUOUS
10
109.064
20
-93.2889
11
108.953
21
-93.2247
0
LINE
8
BLACK
6
CONTINUOUS
10
108.953
20
-93.2247
11
108.862
21
-93.1167
0
LINE
8
BLACK
6
CONTINUOUS
10
108.862
20
-93.1167
11
108.814
21
-92.9841
0
LINE
8
BLACK
6
CONTINUOUS
10
108.814
20
-92.9841
11
108.814
21
-92.8431
0
LINE
8
BLACK
6
CONTINUOUS
10
108.814
20
-92.8431
11
108.862
21
-92.7105
0
LINE
8
BLACK
6
CONTINUOUS
10
108.862
20
-92.7105
11
108.953
21
-92.6025
0
LINE
8
BLACK
6
CONTINUOUS
10
108.953
20
-92.6025
11
109.075
21
-92.5319
0
LINE
8
BLACK
6
CONTINUOUS
10
109.075
20
-92.5319
11
109.214
21
-92.5074
0
LINE
8
BLACK
6
CONTINUOUS
10
109.214
20
-92.5074
11
109.353
21
-92.5319
0
LINE
8
BLACK
6
CONTINUOUS
10
115.139
20
-92.2683
11
115.261
21
-92.3389
0
LINE
8
BLACK
6
CONTINUOUS
10
115.261
20
-92.3389
11
115.352
21
-92.4469
0
LINE
8
BLACK
6
CONTINUOUS
10
115.352
20
-92.4469
11
115.4
21
-92.5795
0
LINE
8
BLACK
6
CONTINUOUS
10
115.4
20
-92.5795
11
115.4
21
-92.7205
0
LINE
8
BLACK
6
CONTINUOUS
10
115.4
20
-92.7205
11
115.388
21
-92.7547
0
LINE
8
BLACK
6
CONTINUOUS
10
115.388
20
-92.7547
11
115.825
21
-93.1922
0
LINE
8
BLACK
6
CONTINUOUS
10
115.825
20
-93.1922
11
115.825
21
-92.95
0
LINE
8
BLACK
6
CONTINUOUS
10
115.825
20
-92.95
11
116.575
21
-92.95
0
LINE
8
BLACK
6
CONTINUOUS
10
116.575
20
-92.95
11
116.575
21
-93.35
0
LINE
8
BLACK
6
CONTINUOUS
10
116.575
20
-93.35
11
117.5
21
-93.35
0
LINE
8
BLACK
6
CONTINUOUS
10
117.5
20
-93.35
11
117.5
21
-92.45
0
LINE
8
BLACK
6
CONTINUOUS
10
117.5
20
-92.45
11
119.6
21
-92.45
0
LINE
8
BLACK
6
CONTINUOUS
10
119.6
20
-92.45
11
119.6
21
-94.25
0
LINE
8
BLACK
6
CONTINUOUS
10
119.6
20
-94.25
11
117.5
21
-94.25
0
LINE
8
BLACK
6
CONTINUOUS
10
117.5
20
-94.25
11
117.5
21
-93.75
0
LINE
8
BLACK
6
CONTINUOUS
10
117.5
20
-93.75
11
116.575
21
-93.75
0
LINE
8
BLACK
6
CONTINUOUS
10
116.575
20
-93.75
11
116.575
21
-94.15
0
LINE
8
BLACK
6
CONTINUOUS
10
116.575
20
-94.15
11
115.825
21
-94.15
0
LINE
8
BLACK
6
CONTINUOUS
10
115.825
20
-94.15
11
115.825
21
-93.7376
0
LINE
8
BLACK
6
CONTINUOUS
10
115.825
20
-93.7376
11
115.823
21
-93.7364
0
LINE
8
BLACK
6
CONTINUOUS
10
115.823
20
-93.7364
11
115.814
21
-93.7341
0
LINE
8
BLACK
6
CONTINUOUS
10
115.814
20
-93.7341
11
115.792
21
-93.7188
0
LINE
8
BLACK
6
CONTINUOUS
10
115.792
20
-93.7188
11
115.769
21
-93.7056
0
LINE
8
BLACK
6
CONTINUOUS
10
115.769
20
-93.7056
11
115.752
21
-93.6852
0
LINE
8
BLACK
6
CONTINUOUS
10
115.752
20
-93.6852
11
115.105
21
-93.0377
0
LINE
8
BLACK
6
CONTINUOUS
10
115.105
20
-93.0377
11
115
21
-93.0562
0
LINE
8
BLACK
6
CONTINUOUS
10
115
20
-93.0562
11
114.861
21
-93.0317
0
LINE
8
BLACK
6
CONTINUOUS
10
114.861
20
-93.0317
11
114.739
21
-92.9611
0
LINE
8
BLACK
6
CONTINUOUS
10
114.739
20
-92.9611
11
114.648
21
-92.8531
0
LINE
8
BLACK
6
CONTINUOUS
10
114.648
20
-92.8531
11
114.6
21
-92.7205
0
LINE
8
BLACK
6
CONTINUOUS
10
114.6
20
-92.7205
11
114.6
21
-92.5795
0
LINE
8
BLACK
6
CONTINUOUS
10
114.6
20
-92.5795
11
114.648
21
-92.4469
0
LINE
8
BLACK
6
CONTINUOUS
10
114.648
20
-92.4469
11
114.739
21
-92.3389
0
LINE
8
BLACK
6
CONTINUOUS
10
114.739
20
-92.3389
11
114.861
21
-92.2683
0
LINE
8
BLACK
6
CONTINUOUS
10
114.861
20
-92.2683
11
115
21
-92.2438
0
LINE
8
BLACK
6
CONTINUOUS
10
115
20
-92.2438
11
115.139
21
-92.2683
0
LINE
8
BLACK
6
CONTINUOUS
10
99.95
20
-94.075
11
98.35
21
-94.075
0
LINE
8
BLACK
6
CONTINUOUS
10
98.35
20
-94.075
11
98.35
21
-93.525
0
LINE
8
BLACK
6
CONTINUOUS
10
98.35
20
-93.525
11
99.95
21
-93.525
0
LINE
8
BLACK
6
CONTINUOUS
10
99.95
20
-93.525
11
99.95
21
-94.075
0
LINE
8
BLACK
6
CONTINUOUS
10
103.275
20
-92.35
11
103.15
21
-92.35
0
LINE
8
BLACK
6
CONTINUOUS
10
103.15
20
-92.35
11
103.15
21
-92.5879
0
LINE
8
BLACK
6
CONTINUOUS
10
103.15
20
-92.5879
11
103.404
21
-92.8422
0
LINE
8
BLACK
6
CONTINUOUS
10
103.404
20
-92.8422
11
103.522
21
-92.7744
0
LINE
8
BLACK
6
CONTINUOUS
10
103.522
20
-92.7744
11
103.661
21
-92.7499
0
LINE
8
BLACK
6
CONTINUOUS
10
103.661
20
-92.7499
11
103.8
21
-92.7744
0
LINE
8
BLACK
6
CONTINUOUS
10
103.8
20
-92.7744
11
103.922
21
-92.8449
0
LINE
8
BLACK
6
CONTINUOUS
10
103.922
20
-92.8449
11
104.012
21
-92.953
0
LINE
8
BLACK
6
CONTINUOUS
10
104.012
20
-92.953
11
104.061
21
-93.0855
0
LINE
8
BLACK
6
CONTINUOUS
10
104.061
20
-93.0855
11
104.061
21
-93.2266
0
LINE
8
BLACK
6
CONTINUOUS
10
104.061
20
-93.2266
11
104.012
21
-93.3591
0
LINE
8
BLACK
6
CONTINUOUS
10
104.012
20
-93.3591
11
103.922
21
-93.4672
0
LINE
8
BLACK
6
CONTINUOUS
10
103.922
20
-93.4672
11
103.8
21
-93.5377
0
LINE
8
BLACK
6
CONTINUOUS
10
103.8
20
-93.5377
11
103.661
21
-93.5622
0
LINE
8
BLACK
6
CONTINUOUS
10
103.661
20
-93.5622
11
103.522
21
-93.5377
0
LINE
8
BLACK
6
CONTINUOUS
10
103.522
20
-93.5377
11
103.4
21
-93.4672
0
LINE
8
BLACK
6
CONTINUOUS
10
103.4
20
-93.4672
11
103.309
21
-93.3591
0
LINE
8
BLACK
6
CONTINUOUS
10
103.309
20
-93.3591
11
103.261
21
-93.2266
0
LINE
8
BLACK
6
CONTINUOUS
10
103.261
20
-93.2266
11
103.261
21
-93.1228
0
LINE
8
BLACK
6
CONTINUOUS
10
103.261
20
-93.1228
11
102.899
21
-92.7607
0
LINE
8
BLACK
6
CONTINUOUS
10
102.899
20
-92.7607
11
102.883
21
-92.7479
0
LINE
8
BLACK
6
CONTINUOUS
10
102.883
20
-92.7479
11
102.873
21
-92.7307
0
LINE
8
BLACK
6
CONTINUOUS
10
102.873
20
-92.7307
11
102.862
21
-92.7144
0
LINE
8
BLACK
6
CONTINUOUS
10
102.862
20
-92.7144
11
102.86
21
-92.7079
0
LINE
8
BLACK
6
CONTINUOUS
10
102.86
20
-92.7079
11
102.857
21
-92.7021
0
LINE
8
BLACK
6
CONTINUOUS
10
102.857
20
-92.7021
11
102.853
21
-92.6825
0
LINE
8
BLACK
6
CONTINUOUS
10
102.853
20
-92.6825
11
102.848
21
-92.6633
0
LINE
8
BLACK
6
CONTINUOUS
10
102.848
20
-92.6633
11
102.85
21
-92.6435
0
LINE
8
BLACK
6
CONTINUOUS
10
102.85
20
-92.6435
11
102.85
21
-92.35
0
LINE
8
BLACK
6
CONTINUOUS
10
102.85
20
-92.35
11
102.725
21
-92.35
0
LINE
8
BLACK
6
CONTINUOUS
10
102.725
20
-92.35
11
102.725
21
-90.75
0
LINE
8
BLACK
6
CONTINUOUS
10
102.725
20
-90.75
11
103.275
21
-90.75
0
LINE
8
BLACK
6
CONTINUOUS
10
103.275
20
-90.75
11
103.275
21
-92.35
0
LINE
8
BLACK
6
CONTINUOUS
10
108.45
20
-93.275
11
106.85
21
-93.275
0
LINE
8
BLACK
6
CONTINUOUS
10
106.85
20
-93.275
11
106.85
21
-92.725
0
LINE
8
BLACK
6
CONTINUOUS
10
106.85
20
-92.725
11
108.45
21
-92.725
0
LINE
8
BLACK
6
CONTINUOUS
10
108.45
20
-92.725
11
108.45
21
-93.275
0
LINE
8
BLACK
6
CONTINUOUS
10
141.45
20
-93.25
11
139.75
21
-93.25
0
LINE
8
BLACK
6
CONTINUOUS
10
139.75
20
-93.25
11
139.75
21
-91.55
0
LINE
8
BLACK
6
CONTINUOUS
10
139.75
20
-91.55
11
141.45
21
-91.55
0
LINE
8
BLACK
6
CONTINUOUS
10
141.45
20
-91.55
11
141.45
21
-93.25
0
LINE
8
BLACK
6
CONTINUOUS
10
128.232
20
-91.0534
11
128.252
21
-91.0569
0
LINE
8
BLACK
6
CONTINUOUS
10
128.252
20
-91.0569
11
128.258
21
-91.0602
0
LINE
8
BLACK
6
CONTINUOUS
10
128.258
20
-91.0602
11
128.264
21
-91.0619
0
LINE
8
BLACK
6
CONTINUOUS
10
128.264
20
-91.0619
11
128.281
21
-91.0734
0
LINE
8
BLACK
6
CONTINUOUS
10
128.281
20
-91.0734
11
128.298
21
-91.0833
0
LINE
8
BLACK
6
CONTINUOUS
10
128.298
20
-91.0833
11
128.311
21
-91.0986
0
LINE
8
BLACK
6
CONTINUOUS
10
128.311
20
-91.0986
11
129.14
21
-91.9282
0
LINE
8
BLACK
6
CONTINUOUS
10
129.14
20
-91.9282
11
129.266
21
-91.8559
0
LINE
8
BLACK
6
CONTINUOUS
10
129.266
20
-91.8559
11
129.441
21
-91.825
0
LINE
8
BLACK
6
CONTINUOUS
10
129.441
20
-91.825
11
129.559
21
-91.825
0
LINE
8
BLACK
6
CONTINUOUS
10
129.559
20
-91.825
11
129.734
21
-91.8559
0
LINE
8
BLACK
6
CONTINUOUS
10
129.734
20
-91.8559
11
129.941
21
-91.9749
0
LINE
8
BLACK
6
CONTINUOUS
10
129.941
20
-91.9749
11
130.094
21
-92.1573
0
LINE
8
BLACK
6
CONTINUOUS
10
130.094
20
-92.1573
11
130.175
21
-92.381
0
LINE
8
BLACK
6
CONTINUOUS
10
130.175
20
-92.381
11
130.175
21
-92.619
0
LINE
8
BLACK
6
CONTINUOUS
10
130.175
20
-92.619
11
130.094
21
-92.8427
0
LINE
8
BLACK
6
CONTINUOUS
10
130.094
20
-92.8427
11
129.941
21
-93.0251
0
LINE
8
BLACK
6
CONTINUOUS
10
129.941
20
-93.0251
11
129.734
21
-93.1441
0
LINE
8
BLACK
6
CONTINUOUS
10
129.734
20
-93.1441
11
129.559
21
-93.175
0
LINE
8
BLACK
6
CONTINUOUS
10
129.559
20
-93.175
11
129.441
21
-93.175
0
LINE
8
BLACK
6
CONTINUOUS
10
129.441
20
-93.175
11
129.266
21
-93.1441
0
LINE
8
BLACK
6
CONTINUOUS
10
129.266
20
-93.1441
11
129.059
21
-93.0251
0
LINE
8
BLACK
6
CONTINUOUS
10
129.059
20
-93.0251
11
128.906
21
-92.8427
0
LINE
8
BLACK
6
CONTINUOUS
10
128.906
20
-92.8427
11
128.825
21
-92.619
0
LINE
8
BLACK
6
CONTINUOUS
10
128.825
20
-92.619
11
128.825
21
-92.381
0
LINE
8
BLACK
6
CONTINUOUS
10
128.825
20
-92.381
11
128.906
21
-92.1573
0
LINE
8
BLACK
6
CONTINUOUS
10
128.906
20
-92.1573
11
128.924
21
-92.1362
0
LINE
8
BLACK
6
CONTINUOUS
10
128.924
20
-92.1362
11
128.138
21
-91.35
0
LINE
8
BLACK
6
CONTINUOUS
10
128.138
20
-91.35
11
109.862
21
-91.35
0
LINE
8
BLACK
6
CONTINUOUS
10
109.862
20
-91.35
11
109.765
21
-91.4468
0
LINE
8
BLACK
6
CONTINUOUS
10
109.765
20
-91.4468
11
109.765
21
-91.4468
0
LINE
8
BLACK
6
CONTINUOUS
10
109.765
20
-91.4468
11
109.619
21
-91.5934
0
LINE
8
BLACK
6
CONTINUOUS
10
109.619
20
-91.5934
11
109.65
21
-91.6795
0
LINE
8
BLACK
6
CONTINUOUS
10
109.65
20
-91.6795
11
109.65
21
-91.8205
0
LINE
8
BLACK
6
CONTINUOUS
10
109.65
20
-91.8205
11
109.602
21
-91.9531
0
LINE
8
BLACK
6
CONTINUOUS
10
109.602
20
-91.9531
11
109.511
21
-92.0611
0
LINE
8
BLACK
6
CONTINUOUS
10
109.511
20
-92.0611
11
109.389
21
-92.1317
0
LINE
8
BLACK
6
CONTINUOUS
10
109.389
20
-92.1317
11
109.25
21
-92.1562
0
LINE
8
BLACK
6
CONTINUOUS
10
109.25
20
-92.1562
11
109.111
21
-92.1317
0
LINE
8
BLACK
6
CONTINUOUS
10
109.111
20
-92.1317
11
108.989
21
-92.0611
0
LINE
8
BLACK
6
CONTINUOUS
10
108.989
20
-92.0611
11
108.898
21
-91.9531
0
LINE
8
BLACK
6
CONTINUOUS
10
108.898
20
-91.9531
11
108.85
21
-91.8205
0
LINE
8
BLACK
6
CONTINUOUS
10
108.85
20
-91.8205
11
108.85
21
-91.6795
0
LINE
8
BLACK
6
CONTINUOUS
10
108.85
20
-91.6795
11
108.898
21
-91.5469
0
LINE
8
BLACK
6
CONTINUOUS
10
108.898
20
-91.5469
11
108.989
21
-91.4389
0
LINE
8
BLACK
6
CONTINUOUS
10
108.989
20
-91.4389
11
109.111
21
-91.3683
0
LINE
8
BLACK
6
CONTINUOUS
10
109.111
20
-91.3683
11
109.25
21
-91.3438
0
LINE
8
BLACK
6
CONTINUOUS
10
109.25
20
-91.3438
11
109.389
21
-91.3683
0
LINE
8
BLACK
6
CONTINUOUS
10
109.389
20
-91.3683
11
109.408
21
-91.3795
0
LINE
8
BLACK
6
CONTINUOUS
10
109.408
20
-91.3795
11
109.553
21
-91.2347
0
LINE
8
BLACK
6
CONTINUOUS
10
109.553
20
-91.2347
11
109.553
21
-91.2347
0
LINE
8
BLACK
6
CONTINUOUS
10
109.553
20
-91.2347
11
109.689
21
-91.0985
0
LINE
8
BLACK
6
CONTINUOUS
10
109.689
20
-91.0985
11
109.702
21
-91.0833
0
LINE
8
BLACK
6
CONTINUOUS
10
109.702
20
-91.0833
11
109.719
21
-91.0734
0
LINE
8
BLACK
6
CONTINUOUS
10
109.719
20
-91.0734
11
109.736
21
-91.0619
0
LINE
8
BLACK
6
CONTINUOUS
10
109.736
20
-91.0619
11
109.742
21
-91.0602
0
LINE
8
BLACK
6
CONTINUOUS
10
109.742
20
-91.0602
11
109.748
21
-91.0569
0
LINE
8
BLACK
6
CONTINUOUS
10
109.748
20
-91.0569
11
109.768
21
-91.0534
0
LINE
8
BLACK
6
CONTINUOUS
10
109.768
20
-91.0534
11
109.787
21
-91.0483
0
LINE
8
BLACK
6
CONTINUOUS
10
109.787
20
-91.0483
11
109.807
21
-91.05
0
LINE
8
BLACK
6
CONTINUOUS
10
109.807
20
-91.05
11
128.193
21
-91.05
0
LINE
8
BLACK
6
CONTINUOUS
10
128.193
20
-91.05
11
128.213
21
-91.0483
0
LINE
8
BLACK
6
CONTINUOUS
10
128.213
20
-91.0483
11
128.232
21
-91.0534
0
LINE
8
BLACK
6
CONTINUOUS
10
129.632
20
-90.4534
11
129.652
21
-90.4569
0
LINE
8
BLACK
6
CONTINUOUS
10
129.652
20
-90.4569
11
129.658
21
-90.4602
0
LINE
8
BLACK
6
CONTINUOUS
10
129.658
20
-90.4602
11
129.664
21
-90.4619
0
LINE
8
BLACK
6
CONTINUOUS
10
129.664
20
-90.4619
11
129.681
21
-90.4733
0
LINE
8
BLACK
6
CONTINUOUS
10
129.681
20
-90.4733
11
129.698
21
-90.4833
0
LINE
8
BLACK
6
CONTINUOUS
10
129.698
20
-90.4833
11
129.711
21
-90.4985
0
LINE
8
BLACK
6
CONTINUOUS
10
129.711
20
-90.4985
11
131.14
21
-91.9282
0
LINE
8
BLACK
6
CONTINUOUS
10
131.14
20
-91.9282
11
131.266
21
-91.8559
0
LINE
8
BLACK
6
CONTINUOUS
10
131.266
20
-91.8559
11
131.441
21
-91.825
0
LINE
8
BLACK
6
CONTINUOUS
10
131.441
20
-91.825
11
131.559
21
-91.825
0
LINE
8
BLACK
6
CONTINUOUS
10
131.559
20
-91.825
11
131.734
21
-91.8559
0
LINE
8
BLACK
6
CONTINUOUS
10
131.734
20
-91.8559
11
131.941
21
-91.9749
0
LINE
8
BLACK
6
CONTINUOUS
10
131.941
20
-91.9749
11
132.094
21
-92.1573
0
LINE
8
BLACK
6
CONTINUOUS
10
132.094
20
-92.1573
11
132.175
21
-92.381
0
LINE
8
BLACK
6
CONTINUOUS
10
132.175
20
-92.381
11
132.175
21
-92.619
0
LINE
8
BLACK
6
CONTINUOUS
10
132.175
20
-92.619
11
132.094
21
-92.8427
0
LINE
8
BLACK
6
CONTINUOUS
10
132.094
20
-92.8427
11
131.941
21
-93.0251
0
LINE
8
BLACK
6
CONTINUOUS
10
131.941
20
-93.0251
11
131.734
21
-93.1441
0
LINE
8
BLACK
6
CONTINUOUS
10
131.734
20
-93.1441
11
131.559
21
-93.175
0
LINE
8
BLACK
6
CONTINUOUS
10
131.559
20
-93.175
11
131.441
21
-93.175
0
LINE
8
BLACK
6
CONTINUOUS
10
131.441
20
-93.175
11
131.266
21
-93.1441
0
LINE
8
BLACK
6
CONTINUOUS
10
131.266
20
-93.1441
11
131.059
21
-93.0251
0
LINE
8
BLACK
6
CONTINUOUS
10
131.059
20
-93.0251
11
130.906
21
-92.8427
0
LINE
8
BLACK
6
CONTINUOUS
10
130.906
20
-92.8427
11
130.825
21
-92.619
0
LINE
8
BLACK
6
CONTINUOUS
10
130.825
20
-92.619
11
130.825
21
-92.381
0
LINE
8
BLACK
6
CONTINUOUS
10
130.825
20
-92.381
11
130.906
21
-92.1573
0
LINE
8
BLACK
6
CONTINUOUS
10
130.906
20
-92.1573
11
130.924
21
-92.1362
0
LINE
8
BLACK
6
CONTINUOUS
10
130.924
20
-92.1362
11
129.538
21
-90.75
0
LINE
8
BLACK
6
CONTINUOUS
10
129.538
20
-90.75
11
108.712
21
-90.75
0
LINE
8
BLACK
6
CONTINUOUS
10
108.712
20
-90.75
11
108.515
21
-90.9468
0
LINE
8
BLACK
6
CONTINUOUS
10
108.515
20
-90.9468
11
108.515
21
-90.9468
0
LINE
8
BLACK
6
CONTINUOUS
10
108.515
20
-90.9468
11
108.369
21
-91.0934
0
LINE
8
BLACK
6
CONTINUOUS
10
108.369
20
-91.0934
11
108.4
21
-91.1795
0
LINE
8
BLACK
6
CONTINUOUS
10
108.4
20
-91.1795
11
108.4
21
-91.3205
0
LINE
8
BLACK
6
CONTINUOUS
10
108.4
20
-91.3205
11
108.352
21
-91.4531
0
LINE
8
BLACK
6
CONTINUOUS
10
108.352
20
-91.4531
11
108.261
21
-91.5611
0
LINE
8
BLACK
6
CONTINUOUS
10
108.261
20
-91.5611
11
108.139
21
-91.6317
0
LINE
8
BLACK
6
CONTINUOUS
10
108.139
20
-91.6317
11
108
21
-91.6562
0
LINE
8
BLACK
6
CONTINUOUS
10
108
20
-91.6562
11
107.861
21
-91.6317
0
LINE
8
BLACK
6
CONTINUOUS
10
107.861
20
-91.6317
11
107.739
21
-91.5611
0
LINE
8
BLACK
6
CONTINUOUS
10
107.739
20
-91.5611
11
107.648
21
-91.4531
0
LINE
8
BLACK
6
CONTINUOUS
10
107.648
20
-91.4531
11
107.6
21
-91.3205
0
LINE
8
BLACK
6
CONTINUOUS
10
107.6
20
-91.3205
11
107.6
21
-91.1795
0
LINE
8
BLACK
6
CONTINUOUS
10
107.6
20
-91.1795
11
107.648
21
-91.0469
0
LINE
8
BLACK
6
CONTINUOUS
10
107.648
20
-91.0469
11
107.739
21
-90.9389
0
LINE
8
BLACK
6
CONTINUOUS
10
107.739
20
-90.9389
11
107.861
21
-90.8683
0
LINE
8
BLACK
6
CONTINUOUS
10
107.861
20
-90.8683
11
108
21
-90.8438
0
LINE
8
BLACK
6
CONTINUOUS
10
108
20
-90.8438
11
108.139
21
-90.8683
0
LINE
8
BLACK
6
CONTINUOUS
10
108.139
20
-90.8683
11
108.158
21
-90.8795
0
LINE
8
BLACK
6
CONTINUOUS
10
108.158
20
-90.8795
11
108.303
21
-90.7347
0
LINE
8
BLACK
6
CONTINUOUS
10
108.303
20
-90.7347
11
108.303
21
-90.7347
0
LINE
8
BLACK
6
CONTINUOUS
10
108.303
20
-90.7347
11
108.539
21
-90.4985
0
LINE
8
BLACK
6
CONTINUOUS
10
108.539
20
-90.4985
11
108.552
21
-90.4833
0
LINE
8
BLACK
6
CONTINUOUS
10
108.552
20
-90.4833
11
108.569
21
-90.4733
0
LINE
8
BLACK
6
CONTINUOUS
10
108.569
20
-90.4733
11
108.586
21
-90.4619
0
LINE
8
BLACK
6
CONTINUOUS
10
108.586
20
-90.4619
11
108.592
21
-90.4602
0
LINE
8
BLACK
6
CONTINUOUS
10
108.592
20
-90.4602
11
108.598
21
-90.4569
0
LINE
8
BLACK
6
CONTINUOUS
10
108.598
20
-90.4569
11
108.618
21
-90.4534
0
LINE
8
BLACK
6
CONTINUOUS
10
108.618
20
-90.4534
11
108.637
21
-90.4482
0
LINE
8
BLACK
6
CONTINUOUS
10
108.637
20
-90.4482
11
108.657
21
-90.45
0
LINE
8
BLACK
6
CONTINUOUS
10
108.657
20
-90.45
11
129.593
21
-90.45
0
LINE
8
BLACK
6
CONTINUOUS
10
129.593
20
-90.45
11
129.613
21
-90.4482
0
LINE
8
BLACK
6
CONTINUOUS
10
129.613
20
-90.4482
11
129.632
21
-90.4534
0
LINE
8
BLACK
6
CONTINUOUS
10
102.475
20
-92.35
11
101.925
21
-92.35
0
LINE
8
BLACK
6
CONTINUOUS
10
101.925
20
-92.35
11
101.925
21
-90.75
0
LINE
8
BLACK
6
CONTINUOUS
10
101.925
20
-90.75
11
102.475
21
-90.75
0
LINE
8
BLACK
6
CONTINUOUS
10
102.475
20
-90.75
11
102.475
21
-92.35
0
LINE
8
BLACK
6
CONTINUOUS
10
104.075
20
-92.35
11
103.525
21
-92.35
0
LINE
8
BLACK
6
CONTINUOUS
10
103.525
20
-92.35
11
103.525
21
-90.75
0
LINE
8
BLACK
6
CONTINUOUS
10
103.525
20
-90.75
11
104.075
21
-90.75
0
LINE
8
BLACK
6
CONTINUOUS
10
104.075
20
-90.75
11
104.075
21
-92.35
0
LINE
8
BLACK
6
CONTINUOUS
10
104.875
20
-92.35
11
104.325
21
-92.35
0
LINE
8
BLACK
6
CONTINUOUS
10
104.325
20
-92.35
11
104.325
21
-90.75
0
LINE
8
BLACK
6
CONTINUOUS
10
104.325
20
-90.75
11
104.875
21
-90.75
0
LINE
8
BLACK
6
CONTINUOUS
10
104.875
20
-90.75
11
104.875
21
-92.35
0
LINE
8
BLACK
6
CONTINUOUS
10
105.675
20
-92.35
11
105.125
21
-92.35
0
LINE
8
BLACK
6
CONTINUOUS
10
105.125
20
-92.35
11
105.125
21
-90.75
0
LINE
8
BLACK
6
CONTINUOUS
10
105.125
20
-90.75
11
105.675
21
-90.75
0
LINE
8
BLACK
6
CONTINUOUS
10
105.675
20
-90.75
11
105.675
21
-92.35
0
LINE
8
BLACK
6
CONTINUOUS
10
106.475
20
-92.35
11
105.925
21
-92.35
0
LINE
8
BLACK
6
CONTINUOUS
10
105.925
20
-92.35
11
105.925
21
-90.75
0
LINE
8
BLACK
6
CONTINUOUS
10
105.925
20
-90.75
11
106.475
21
-90.75
0
LINE
8
BLACK
6
CONTINUOUS
10
106.475
20
-90.75
11
106.475
21
-92.35
0
CIRCLE
8
BLACK
10
108
20
-91.25
40
0.2
0
CIRCLE
8
BLACK
10
105.856
20
-93.106
40
0.2
0
CIRCLE
8
BLACK
10
109.25
20
-91.75
40
0.2
0
CIRCLE
8
BLACK
10
104.757
20
-93.0616
40
0.2
0
CIRCLE
8
BLACK
10
115
20
-92.65
40
0.2
0
CIRCLE
8
BLACK
10
111.8
20
-92.5
40
0.2
0
CIRCLE
8
BLACK
10
118.7
20
-99
40
0.2
0
CIRCLE
8
BLACK
10
136.3
20
-97.3
40
0.2
0
CIRCLE
8
BLACK
10
127.6
20
-95.4
40
0.2
0
CIRCLE
8
BLACK
10
107.5
20
-108.8
40
0.2
0
CIRCLE
8
BLACK
10
113.3
20
-107.1
40
0.2
0
CIRCLE
8
BLACK
10
107.4
20
-112.5
40
0.2
0
CIRCLE
8
BLACK
10
111.9
20
-113.8
40
0.2
0
CIRCLE
8
BLACK
10
104.6
20
-106.5
40
0.2
0
CIRCLE
8
BLACK
10
154.8
20
-129.7
40
0.2
0
CIRCLE
8
BLACK
10
154.5
20
-95.3
40
0.2
0
CIRCLE
8
BLACK
10
101.5
20
-132.1
40
0.2
0
CIRCLE
8
BLACK
10
106
20
-104.1
40
0.2
0
CIRCLE
8
BLACK
10
106
20
-95.3
40
0.2
0
CIRCLE
8
BLACK
10
139.6
20
-95
40
0.2
0
CIRCLE
8
BLACK
10
109.214
20
-92.9136
40
0.2
0
CIRCLE
8
BLACK
10
114.2
20
-117.5
40
0.2
0
CIRCLE
8
BLACK
10
112.5
20
-120.3
40
0.2
0
CIRCLE
8
BLACK
10
100.413
20
-95.4
40
0.2
0
CIRCLE
8
BLACK
10
101.25
20
-106.551
40
0.2
0
CIRCLE
8
BLACK
10
100.65
20
-97.6198
40
0.2
0
CIRCLE
8
BLACK
10
100.626
20
-96.4821
40
0.2
0
CIRCLE
8
BLACK
10
101.5
20
-110.5
40
0.2
0
CIRCLE
8
BLACK
10
104.2
20
-97.3
40
0.2
0
CIRCLE
8
BLACK
10
109.5
20
-125.6
40
0.2
0
CIRCLE
8
BLACK
10
102.2
20
-98.55
40
0.2
0
CIRCLE
8
BLACK
10
99.9
20
-123.3
40
0.2
0
CIRCLE
8
BLACK
10
102.349
20
-96.326
40
0.2
0
CIRCLE
8
BLACK
10
103.992
20
-116.535
40
0.2
0
CIRCLE
8
BLACK
10
103.661
20
-93.1561
40
0.2
  0
ENDSEC
  0
EOF
