999
dxfrw 0.6.3
  0
SECTION
  2
HEADER
  9
$ACADVER
  1
AC1021
  9
$DWGCODEPAGE
  3
ANSI_1252
  9
$INSBASE
 10
0
 20
0
 30
0
  9
$EXTMIN
 10
98.4483
 20
-134.252
 30
0
  9
$EXTMAX
 10
159.21
 20
-90.8438
 30
0
  9
$LIMMIN
 10
0
 20
0
  9
$LIMMAX
 10
420
 20
297
  9
$ORTHOMODE
 70
    0
  9
$REGENMODE
 70
    1
  9
$FILLMODE
 70
    1
  9
$QTEXTMODE
 70
    0
  9
$MIRRTEXT
 70
    0
  9
$LTSCALE
 40
1
  9
$ATTMODE
 70
    0
  9
$TEXTSIZE
 40
2.5
  9
$TRACEWID
 40
15.68
  9
$TEXTSTYLE
  7
STANDARD
  9
$CLAYER
  8
0
  9
$CELTYPE
  6
BYLAYER
  9
$CECOLOR
 62
  256
  9
$CELTSCALE
 40
1
  9
$DISPSILH
 70
    0
  9
$DIMSCALE
 40
2.5
  9
$DIMASZ
 40
2.5
  9
$DIMEXO
 40
0.625
  9
$DIMDLI
 40
3.75
  9
$DIMRND
 40
0
  9
$DIMDLE
 40
0
  9
$DIMEXE
 40
1.25
  9
$DIMTP
 40
0
  9
$DIMTM
 40
0
  9
$DIMTXT
 40
2.5
  9
$DIMCEN
 40
2.5
  9
$DIMTSZ
 40
0
  9
$DIMTOL
 70
    0
  9
$DIMLIM
 70
    0
  9
$DIMTIH
 70
    0
  9
$DIMTOH
 70
    0
  9
$DIMSE1
 70
    0
  9
$DIMSE2
 70
    0
  9
$DIMTAD
 70
    1
  9
$DIMZIN
 70
    8
  9
$DIMBLK
  1

  9
$DIMASO
 70
    1
  9
$DIMSHO
 70
    1
  9
$DIMPOST
  1

  9
$DIMAPOST
  1

  9
$DIMALT
 70
    0
  9
$DIMALTD
 70
    3
  9
$DIMALTF
 40
0.03937
  9
$DIMLFAC
 40
1
  9
$DIMTOFL
 70
    1
  9
$DIMTVP
 40
0
  9
$DIMTIX
 70
    0
  9
$DIMSOXD
 70
    0
  9
$DIMSAH
 70
    0
  9
$DIMBLK1
  1

  9
$DIMBLK2
  1

  9
$DIMSTYLE
  2
Standard
  9
$DIMCLRD
 70
    0
  9
$DIMCLRE
 70
    0
  9
$DIMCLRT
 70
    0
  9
$DIMTFAC
 40
1
  9
$DIMGAP
 40
0.625
  9
$DIMJUST
 70
    0
  9
$DIMSD1
 70
    0
  9
$DIMSD2
 70
    0
  9
$DIMTOLJ
 70
    0
  9
$DIMTZIN
 70
    8
  9
$DIMALTZ
 70
    0
  9
$DIMALTTZ
 70
    0
  9
$DIMUPT
 70
    0
  9
$DIMDEC
 70
    2
  9
$DIMTDEC
 70
    2
  9
$DIMALTU
 70
    2
  9
$DIMALTTD
 70
    3
  9
$DIMTXSTY
  7
STANDARD
  9
$DIMAUNIT
 70
    0
  9
$DIMADEC
 70
    0
  9
$DIMALTRND
 40
0
  9
$DIMAZIN
 70
    0
  9
$DIMDSEP
 70
   44
  9
$DIMATFIT
 70
    3
  9
$DIMFRAC
 70
    0
  9
$DIMLDRBLK
  1
STANDARD
  9
$DIMLUNIT
 70
    2
  9
$DIMLWD
 70
   -2
  9
$DIMLWE
 70
   -2
  9
$DIMTMOVE
 70
    0
  9
$DIMFXL
 40
1
  9
$DIMFXLON
 70
    0
  9
$DIMJOGANG
 40
0.7854
  9
$DIMTFILL
 70
    0
  9
$DIMTFILLCLR
 70
    0
  9
$DIMARCSYM
 70
    0
  9
$DIMLTYPE
  6

  9
$DIMLTEX1
  6

  9
$DIMLTEX2
  6

  9
$LUNITS
 70
    2
  9
$LUPREC
 70
    4
  9
$SKETCHINC
 40
1
  9
$FILLETRAD
 40
0
  9
$AUNITS
 70
    0
  9
$AUPREC
 70
    2
  9
$MENU
  1
.
  9
$ELEVATION
 40
0
  9
$PELEVATION
 40
0
  9
$THICKNESS
 40
0
  9
$LIMCHECK
 70
    0
  9
$CHAMFERA
 40
0
  9
$CHAMFERB
 40
0
  9
$CHAMFERC
 40
0
  9
$CHAMFERD
 40
0
  9
$SKPOLY
 70
    0
  9
$USRTIMER
 70
    1
  9
$ANGBASE
 50
0
  9
$ANGDIR
 70
    1
  9
$PDMODE
 70
   34
  9
$PDSIZE
 40
0
  9
$PLINEWID
 40
0
  9
$SPLFRAME
 70
    0
  9
$SPLINETYPE
 70
    2
  9
$SPLINESEGS
 70
    8
  9
$HANDSEED
  5
20000
  9
$SURFTAB1
 70
    6
  9
$SURFTAB2
 70
    6
  9
$SURFTYPE
 70
    6
  9
$SURFU
 70
    6
  9
$SURFV
 70
    6
  9
$UCSBASE
  2

  9
$UCSNAME
  2

  9
$UCSORG
 10
0
 20
0
 30
0
  9
$UCSXDIR
 10
1
 20
0
 30
0
  9
$UCSYDIR
 10
0
 20
1
 30
0
  9
$UCSORTHOREF
  2

  9
$UCSORTHOVIEW
 70
    0
  9
$UCSORGTOP
 10
0
 20
0
 30
0
  9
$UCSORGBOTTOM
 10
0
 20
0
 30
0
  9
$UCSORGLEFT
 10
0
 20
0
 30
0
  9
$UCSORGRIGHT
 10
0
 20
0
 30
0
  9
$UCSORGFRONT
 10
0
 20
0
 30
0
  9
$UCSORGBACK
 10
0
 20
0
 30
0
  9
$PUCSBASE
  2

  9
$PUCSNAME
  2

  9
$PUCSORG
 10
0
 20
0
 30
0
  9
$PUCSXDIR
 10
1
 20
0
 30
0
  9
$PUCSYDIR
 10
0
 20
1
 30
0
  9
$PUCSORTHOREF
  2

  9
$PUCSORTHOVIEW
 70
    0
  9
$PUCSORGTOP
 10
0
 20
0
 30
0
  9
$PUCSORGBOTTOM
 10
0
 20
0
 30
0
  9
$PUCSORGLEFT
 10
0
 20
0
 30
0
  9
$PUCSORGRIGHT
 10
0
 20
0
 30
0
  9
$PUCSORGFRONT
 10
0
 20
0
 30
0
  9
$PUCSORGBACK
 10
0
 20
0
 30
0
  9
$USERI1
 70
    0
  9
$USERI2
 70
    0
  9
$USERI3
 70
    0
  9
$USERI4
 70
    0
  9
$USERI5
 70
    0
  9
$USERR1
 40
0
  9
$USERR2
 40
0
  9
$USERR3
 40
0
  9
$USERR4
 40
0
  9
$USERR5
 40
0
  9
$WORLDVIEW
 70
    1
  9
$SHADEDGE
 70
    3
  9
$SHADEDIF
 70
   70
  9
$TILEMODE
 70
    1
  9
$MAXACTVP
 70
   64
  9
$PINSBASE
 10
0
 20
0
 30
0
  9
$PLIMCHECK
 70
    0
  9
$PEXTMIN
 10
0
 20
0
 30
0
  9
$PEXTMAX
 10
0
 20
0
 30
0
  9
$SNAPSTYLE
 70
    0
  9
$PLIMMIN
 10
0
 20
0
  9
$PLIMMAX
 10
210
 20
297
  9
$UNITMODE
 70
    0
  9
$VISRETAIN
 70
    1
  9
$PLINEGEN
 70
    0
  9
$PSLTSCALE
 70
    1
  9
$TREEDEPTH
 70
 3020
  9
$CMLSTYLE
  2
Standard
  9
$CMLJUST
 70
    0
  9
$CMLSCALE
 40
20
  9
$PROXYGRAPHICS
 70
    1
  9
$MEASUREMENT
 70
    0
  9
$CELWEIGHT
370
   -1
  9
$ENDCAPS
280
    0
  9
$JOINSTYLE
280
    0
  9
$LWDISPLAY
290
    0
  9
$INSUNITS
 70
    4
  9
$HYPERLINKBASE
  1

  9
$STYLESHEET
  1

  9
$XEDIT
290
    1
  9
$CEPSNTYPE
380
    0
  9
$PSTYLEMODE
290
    1
  9
$EXTNAMES
290
    1
  9
$PSVPSCALE
 40
1
  9
$OLESTARTUP
290
    0
  9
$SORTENTS
280
  127
  9
$INDEXCTL
280
    0
  9
$HIDETEXT
280
    1
  9
$XCLIPFRAME
290
    0
  9
$HALOGAP
280
    0
  9
$OBSCOLOR
 70
  257
  9
$OBSLTYPE
280
    0
  9
$INTERSECTIONDISPLAY
280
    0
  9
$INTERSECTIONCOLOR
 70
  257
  9
$DIMASSOC
280
    1
  9
$PROJECTNAME
  1

  9
$CAMERADISPLAY
290
    0
  9
$LENSLENGTH
 40
50
  9
$CAMERAHEIGHT
 40
0
  9
$STEPSPERSEC
 40
2
  9
$STEPSIZE
 40
50
  9
$3DDWFPREC
 40
2
  9
$PSOLWIDTH
 40
5
  9
$PSOLHEIGHT
 40
80
  9
$LOFTANG1
 40
1.570796326794897
  9
$LOFTANG2
 40
1.570796326794897
  9
$LOFTMAG1
 40
0
  9
$LOFTMAG2
 40
0
  9
$LOFTPARAM
 70
    7
  9
$LOFTNORMALS
280
    1
  9
$LATITUDE
 40
1
  9
$LONGITUDE
 40
1
  9
$NORTHDIRECTION
 40
0
  9
$TIMEZONE
 70
-8000
  9
$LIGHTGLYPHDISPLAY
280
    1
  9
$TILEMODELIGHTSYNCH
280
    1
  9
$SOLIDHIST
280
    1
  9
$SHOWHIST
280
    1
  9
$DWFFRAME
280
    2
  9
$DGNFRAME
280
    0
  9
$REALWORLDSCALE
290
    1
  9
$INTERFERECOLOR
 62
    1
  9
$CSHADOW
280
    0
  9
$SHADOWPLANELOCATION
 40
0
  0
ENDSEC
  0
SECTION
  2
CLASSES
  0
ENDSEC
  0
SECTION
  2
TABLES
  0
TABLE
  2
VPORT
  5
8
330
0
100
AcDbSymbolTable
 70
    1
  0
VPORT
  5
31
330
2
100
AcDbSymbolTableRecord
100
AcDbViewportTableRecord
  2
*ACTIVE
 70
    0
 10
0
 20
0
 11
1
 21
1
 12
91.36786130006794
 22
-41.61361560970269
 13
0
 23
0
 14
10
 24
10
 15
10
 25
10
 16
0
 26
0
 36
1
 17
0
 27
0
 37
0
 40
62.92921279459544
 41
1.884255319148936
 42
50
 43
0
 44
0
 50
0
 51
0
 71
    0
 72
  100
 73
    1
 74
    3
 75
    0
 76
    1
 77
    0
 78
    0
281
    0
 65
    1
110
0
120
0
130
0
111
1
121
0
131
0
112
0
122
1
132
0
 79
    0
146
0
348
10020
 60
    7
 61
    5
292
1
282
    1
141
0
142
0
 63
  250
421
3358443
  0
ENDTAB
  0
TABLE
  2
LTYPE
  5
5
330
0
100
AcDbSymbolTable
 70
    4
  0
LTYPE
  5
14
330
5
100
AcDbSymbolTableRecord
100
AcDbLinetypeTableRecord
  2
ByBlock
 70
    0
  3

 72
   65
 73
    0
 40
0
  0
LTYPE
  5
15
330
5
100
AcDbSymbolTableRecord
100
AcDbLinetypeTableRecord
  2
ByLayer
 70
    0
  3

 72
   65
 73
    0
 40
0
  0
LTYPE
  5
16
330
5
100
AcDbSymbolTableRecord
100
AcDbLinetypeTableRecord
  2
Continuous
 70
    0
  3
Solid line
 72
   65
 73
    0
 40
0
  0
LTYPE
  5
32
330
5
100
AcDbSymbolTableRecord
100
AcDbLinetypeTableRecord
  2
DOT
 70
    0
  3
Dot . . . . . . . . . . . . . . . . . . . . . .
 72
   65
 73
    2
 40
6.35
 49
0
 74
    0
 49
-6.35
 74
    0
  0
LTYPE
  5
33
330
5
100
AcDbSymbolTableRecord
100
AcDbLinetypeTableRecord
  2
DOTTINY
 70
    0
  3
Dot (.15x) .....................................
 72
   65
 73
    2
 40
0.9525
 49
0
 74
    0
 49
-0.9525
 74
    0
  0
LTYPE
  5
34
330
5
100
AcDbSymbolTableRecord
100
AcDbLinetypeTableRecord
  2
DOT2
 70
    0
  3
Dot (.5x) .....................................
 72
   65
 73
    2
 40
3.175
 49
0
 74
    0
 49
-3.175
 74
    0
  0
LTYPE
  5
35
330
5
100
AcDbSymbolTableRecord
100
AcDbLinetypeTableRecord
  2
DOTX2
 70
    0
  3
Dot (2x) .  .  .  .  .  .  .  .  .  .  .  .  .
 72
   65
 73
    2
 40
12.7
 49
0
 74
    0
 49
-12.7
 74
    0
  0
LTYPE
  5
36
330
5
100
AcDbSymbolTableRecord
100
AcDbLinetypeTableRecord
  2
DASHED
 70
    0
  3
Dashed _ _ _ _ _ _ _ _ _ _ _ _ _ _ _ _ _
 72
   65
 73
    2
 40
19.05
 49
12.7
 74
    0
 49
-6.35
 74
    0
  0
LTYPE
  5
37
330
5
100
AcDbSymbolTableRecord
100
AcDbLinetypeTableRecord
  2
DASHEDTINY
 70
    0
  3
Dashed (.15x) _ _ _ _ _ _ _ _ _ _ _ _ _ _ _ _ _
 72
   65
 73
    2
 40
2.8575
 49
1.905
 74
    0
 49
-0.9525
 74
    0
  0
LTYPE
  5
38
330
5
100
AcDbSymbolTableRecord
100
AcDbLinetypeTableRecord
  2
DASHED2
 70
    0
  3
Dashed (.5x) _ _ _ _ _ _ _ _ _ _ _ _ _ _ _ _ _
 72
   65
 73
    2
 40
9.524999999999999
 49
6.35
 74
    0
 49
-3.175
 74
    0
  0
LTYPE
  5
39
330
5
100
AcDbSymbolTableRecord
100
AcDbLinetypeTableRecord
  2
DASHEDX2
 70
    0
  3
Dashed (2x) ____  ____  ____  ____  ____  ___
 72
   65
 73
    2
 40
38.09999999999999
 49
25.4
 74
    0
 49
-12.7
 74
    0
  0
LTYPE
  5
3A
330
5
100
AcDbSymbolTableRecord
100
AcDbLinetypeTableRecord
  2
DASHDOT
 70
    0
  3
Dash dot __ . __ . __ . __ . __ . __ . __ . __
 72
   65
 73
    4
 40
25.4
 49
12.7
 74
    0
 49
-6.35
 74
    0
 49
0
 74
    0
 49
-6.35
 74
    0
  0
LTYPE
  5
3B
330
5
100
AcDbSymbolTableRecord
100
AcDbLinetypeTableRecord
  2
DASHDOTTINY
 70
    0
  3
Dash dot (.15x) _._._._._._._._._._._._._._._.
 72
   65
 73
    4
 40
3.81
 49
1.905
 74
    0
 49
-0.9525
 74
    0
 49
0
 74
    0
 49
-0.9525
 74
    0
  0
LTYPE
  5
3C
330
5
100
AcDbSymbolTableRecord
100
AcDbLinetypeTableRecord
  2
DASHDOT2
 70
    0
  3
Dash dot (.5x) _._._._._._._._._._._._._._._.
 72
   65
 73
    4
 40
12.7
 49
6.35
 74
    0
 49
-3.175
 74
    0
 49
0
 74
    0
 49
-3.175
 74
    0
  0
LTYPE
  5
3D
330
5
100
AcDbSymbolTableRecord
100
AcDbLinetypeTableRecord
  2
DASHDOTX2
 70
    0
  3
Dash dot (2x) ____  .  ____  .  ____  .  ___
 72
   65
 73
    4
 40
50.8
 49
25.4
 74
    0
 49
-12.7
 74
    0
 49
0
 74
    0
 49
-12.7
 74
    0
  0
LTYPE
  5
3E
330
5
100
AcDbSymbolTableRecord
100
AcDbLinetypeTableRecord
  2
DIVIDE
 70
    0
  3
Divide ____ . . ____ . . ____ . . ____ . . ____
 72
   65
 73
    6
 40
31.75
 49
12.7
 74
    0
 49
-6.35
 74
    0
 49
0
 74
    0
 49
-6.35
 74
    0
 49
0
 74
    0
 49
-6.35
 74
    0
  0
LTYPE
  5
3F
330
5
100
AcDbSymbolTableRecord
100
AcDbLinetypeTableRecord
  2
DIVIDETINY
 70
    0
  3
Divide (.15x) __..__..__..__..__..__..__..__.._
 72
   65
 73
    6
 40
4.7625
 49
1.905
 74
    0
 49
-0.9525
 74
    0
 49
0
 74
    0
 49
-0.9525
 74
    0
 49
0
 74
    0
 49
-0.9525
 74
    0
  0
LTYPE
  5
40
330
5
100
AcDbSymbolTableRecord
100
AcDbLinetypeTableRecord
  2
DIVIDE2
 70
    0
  3
Divide (.5x) __..__..__..__..__..__..__..__.._
 72
   65
 73
    6
 40
15.875
 49
6.35
 74
    0
 49
-3.175
 74
    0
 49
0
 74
    0
 49
-3.175
 74
    0
 49
0
 74
    0
 49
-3.175
 74
    0
  0
LTYPE
  5
41
330
5
100
AcDbSymbolTableRecord
100
AcDbLinetypeTableRecord
  2
DIVIDEX2
 70
    0
  3
Divide (2x) ________  .  .  ________  .  .  _
 72
   65
 73
    6
 40
63.5
 49
25.4
 74
    0
 49
-12.7
 74
    0
 49
0
 74
    0
 49
-12.7
 74
    0
 49
0
 74
    0
 49
-12.7
 74
    0
  0
LTYPE
  5
42
330
5
100
AcDbSymbolTableRecord
100
AcDbLinetypeTableRecord
  2
BORDER
 70
    0
  3
Border __ __ . __ __ . __ __ . __ __ . __ __ .
 72
   65
 73
    6
 40
44.45
 49
12.7
 74
    0
 49
-6.35
 74
    0
 49
12.7
 74
    0
 49
-6.35
 74
    0
 49
0
 74
    0
 49
-6.35
 74
    0
  0
LTYPE
  5
43
330
5
100
AcDbSymbolTableRecord
100
AcDbLinetypeTableRecord
  2
BORDERTINY
 70
    0
  3
Border (.15x) __.__.__.__.__.__.__.__.__.__.__.
 72
   65
 73
    6
 40
6.6675
 49
1.905
 74
    0
 49
-0.9525
 74
    0
 49
1.905
 74
    0
 49
-0.9525
 74
    0
 49
0
 74
    0
 49
-0.9525
 74
    0
  0
LTYPE
  5
44
330
5
100
AcDbSymbolTableRecord
100
AcDbLinetypeTableRecord
  2
BORDER2
 70
    0
  3
Border (.5x) __.__.__.__.__.__.__.__.__.__.__.
 72
   65
 73
    6
 40
22.225
 49
6.35
 74
    0
 49
-3.175
 74
    0
 49
6.35
 74
    0
 49
-3.175
 74
    0
 49
0
 74
    0
 49
-3.175
 74
    0
  0
LTYPE
  5
45
330
5
100
AcDbSymbolTableRecord
100
AcDbLinetypeTableRecord
  2
BORDERX2
 70
    0
  3
Border (2x) ____  ____  .  ____  ____  .  ___
 72
   65
 73
    6
 40
88.89999999999999
 49
25.4
 74
    0
 49
-12.7
 74
    0
 49
25.4
 74
    0
 49
-12.7
 74
    0
 49
0
 74
    0
 49
-12.7
 74
    0
  0
LTYPE
  5
46
330
5
100
AcDbSymbolTableRecord
100
AcDbLinetypeTableRecord
  2
CENTER
 70
    0
  3
Center ____ _ ____ _ ____ _ ____ _ ____ _ ____
 72
   65
 73
    4
 40
50.8
 49
31.75
 74
    0
 49
-6.35
 74
    0
 49
6.35
 74
    0
 49
-6.35
 74
    0
  0
LTYPE
  5
47
330
5
100
AcDbSymbolTableRecord
100
AcDbLinetypeTableRecord
  2
CENTERTINY
 70
    0
  3
Center (.15x) ___ _ ___ _ ___ _ ___ _ ___ _ ___
 72
   65
 73
    4
 40
7.619999999999999
 49
4.7625
 74
    0
 49
-0.9525
 74
    0
 49
0.9525
 74
    0
 49
-0.9525
 74
    0
  0
LTYPE
  5
48
330
5
100
AcDbSymbolTableRecord
100
AcDbLinetypeTableRecord
  2
CENTER2
 70
    0
  3
Center (.5x) ___ _ ___ _ ___ _ ___ _ ___ _ ___
 72
   65
 73
    4
 40
28.575
 49
19.05
 74
    0
 49
-3.175
 74
    0
 49
3.175
 74
    0
 49
-3.175
 74
    0
  0
LTYPE
  5
49
330
5
100
AcDbSymbolTableRecord
100
AcDbLinetypeTableRecord
  2
CENTERX2
 70
    0
  3
Center (2x) ________  __  ________  __  _____
 72
   65
 73
    4
 40
101.6
 49
63.5
 74
    0
 49
-12.7
 74
    0
 49
12.7
 74
    0
 49
-12.7
 74
    0
  0
ENDTAB
  0
TABLE
  2
LAYER
  5
2
330
0
100
AcDbSymbolTable
 70
    1
  0
LAYER
  5
10
330
2
100
AcDbSymbolTableRecord
100
AcDbLayerTableRecord
  2
0
 70
    0
 62
    7
  6
CONTINUOUS
370
    0
390
F
  0
LAYER
  5
4A
330
2
100
AcDbSymbolTableRecord
100
AcDbLayerTableRecord
  2
BLACK
 70
    0
 62
    7
  6
CONTINUOUS
370
   -3
390
F
  0
LAYER
  5
4B
330
2
100
AcDbSymbolTableRecord
100
AcDbLayerTableRecord
  2
BLUE1
 70
    0
 62
  178
  6
CONTINUOUS
370
   -3
390
F
  0
LAYER
  5
4C
330
2
100
AcDbSymbolTableRecord
100
AcDbLayerTableRecord
  2
BLUE2
 70
    0
 62
    5
  6
CONTINUOUS
370
   -3
390
F
  0
LAYER
  5
4D
330
2
100
AcDbSymbolTableRecord
100
AcDbLayerTableRecord
  2
BLUE3
 70
    0
 62
  171
  6
CONTINUOUS
370
   -3
390
F
  0
LAYER
  5
4E
330
2
100
AcDbSymbolTableRecord
100
AcDbLayerTableRecord
  2
BLUE4
 70
    0
 62
    5
  6
CONTINUOUS
370
   -3
390
F
  0
LAYER
  5
4F
330
2
100
AcDbSymbolTableRecord
100
AcDbLayerTableRecord
  2
BROWN1
 70
    0
 62
   58
  6
CONTINUOUS
370
   -3
390
F
  0
LAYER
  5
50
330
2
100
AcDbSymbolTableRecord
100
AcDbLayerTableRecord
  2
BROWN2
 70
    0
 62
   54
  6
CONTINUOUS
370
   -3
390
F
  0
LAYER
  5
51
330
2
100
AcDbSymbolTableRecord
100
AcDbLayerTableRecord
  2
CYAN1
 70
    0
 62
  138
  6
CONTINUOUS
370
   -3
390
F
  0
LAYER
  5
52
330
2
100
AcDbSymbolTableRecord
100
AcDbLayerTableRecord
  2
CYAN2
 70
    0
 62
    4
  6
CONTINUOUS
370
   -3
390
F
  0
LAYER
  5
53
330
2
100
AcDbSymbolTableRecord
100
AcDbLayerTableRecord
  2
CYAN3
 70
    0
 62
  131
  6
CONTINUOUS
370
   -3
390
F
  0
LAYER
  5
54
330
2
100
AcDbSymbolTableRecord
100
AcDbLayerTableRecord
  2
CYAN4
 70
    0
 62
    4
  6
CONTINUOUS
370
   -3
390
F
  0
LAYER
  5
55
330
2
100
AcDbSymbolTableRecord
100
AcDbLayerTableRecord
  2
GRAY1
 70
    0
 62
  251
  6
CONTINUOUS
370
   -3
390
F
  0
LAYER
  5
56
330
2
100
AcDbSymbolTableRecord
100
AcDbLayerTableRecord
  2
GRAY2
 70
    0
 62
    8
  6
CONTINUOUS
370
   -3
390
F
  0
LAYER
  5
57
330
2
100
AcDbSymbolTableRecord
100
AcDbLayerTableRecord
  2
GRAY3
 70
    0
 62
    9
  6
CONTINUOUS
370
   -3
390
F
  0
LAYER
  5
58
330
2
100
AcDbSymbolTableRecord
100
AcDbLayerTableRecord
  2
GREEN1
 70
    0
 62
   98
  6
CONTINUOUS
370
   -3
390
F
  0
LAYER
  5
59
330
2
100
AcDbSymbolTableRecord
100
AcDbLayerTableRecord
  2
GREEN2
 70
    0
 62
    3
  6
CONTINUOUS
370
   -3
390
F
  0
LAYER
  5
5A
330
2
100
AcDbSymbolTableRecord
100
AcDbLayerTableRecord
  2
GREEN3
 70
    0
 62
   91
  6
CONTINUOUS
370
   -3
390
F
  0
LAYER
  5
5B
330
2
100
AcDbSymbolTableRecord
100
AcDbLayerTableRecord
  2
GREEN4
 70
    0
 62
    3
  6
CONTINUOUS
370
   -3
390
F
  0
LAYER
  5
5C
330
2
100
AcDbSymbolTableRecord
100
AcDbLayerTableRecord
  2
LYELLOW
 70
    0
 62
   51
  6
CONTINUOUS
370
   -3
390
F
  0
LAYER
  5
5D
330
2
100
AcDbSymbolTableRecord
100
AcDbLayerTableRecord
  2
MAGENTA1
 70
    0
 62
  228
  6
CONTINUOUS
370
   -3
390
F
  0
LAYER
  5
5E
330
2
100
AcDbSymbolTableRecord
100
AcDbLayerTableRecord
  2
MAGENTA2
 70
    0
 62
    6
  6
CONTINUOUS
370
   -3
390
F
  0
LAYER
  5
5F
330
2
100
AcDbSymbolTableRecord
100
AcDbLayerTableRecord
  2
MAGENTA3
 70
    0
 62
  221
  6
CONTINUOUS
370
   -3
390
F
  0
LAYER
  5
60
330
2
100
AcDbSymbolTableRecord
100
AcDbLayerTableRecord
  2
MAGENTA4
 70
    0
 62
    6
  6
CONTINUOUS
370
   -3
390
F
  0
LAYER
  5
61
330
2
100
AcDbSymbolTableRecord
100
AcDbLayerTableRecord
  2
RED1
 70
    0
 62
   18
  6
CONTINUOUS
370
   -3
390
F
  0
LAYER
  5
62
330
2
100
AcDbSymbolTableRecord
100
AcDbLayerTableRecord
  2
RED2
 70
    0
 62
    1
  6
CONTINUOUS
370
   -3
390
F
  0
LAYER
  5
63
330
2
100
AcDbSymbolTableRecord
100
AcDbLayerTableRecord
  2
RED3
 70
    0
 62
   11
  6
CONTINUOUS
370
   -3
390
F
  0
LAYER
  5
64
330
2
100
AcDbSymbolTableRecord
100
AcDbLayerTableRecord
  2
RED4
 70
    0
 62
    1
  6
CONTINUOUS
370
   -3
390
F
  0
LAYER
  5
65
330
2
100
AcDbSymbolTableRecord
100
AcDbLayerTableRecord
  2
WHITE
 70
    0
 62
    7
  6
CONTINUOUS
370
   -3
390
F
  0
LAYER
  5
66
330
2
100
AcDbSymbolTableRecord
100
AcDbLayerTableRecord
  2
YELLOW3
 70
    0
 62
    2
  6
CONTINUOUS
370
   -3
390
F
  0
LAYER
  5
67
330
2
100
AcDbSymbolTableRecord
100
AcDbLayerTableRecord
  2
YELLOW4
 70
    0
 62
    2
  6
CONTINUOUS
370
   -3
390
F
  0
ENDTAB
  0
TABLE
  2
STYLE
  5
3
330
0
100
AcDbSymbolTable
 70
    3
  0
STYLE
  5
68
330
2
100
AcDbSymbolTableRecord
100
AcDbTextStyleTableRecord
  2
Standard
 70
    0
 40
0
 41
1
 50
0
 71
    0
 42
1
  3
txt
  4

  0
ENDTAB
  0
TABLE
  2
VIEW
  5
6
330
0
100
AcDbSymbolTable
 70
    0
  0
ENDTAB
  0
TABLE
  2
UCS
  5
7
330
0
100
AcDbSymbolTable
 70
    0
  0
ENDTAB
  0
TABLE
  2
APPID
  5
9
330
0
100
AcDbSymbolTable
 70
    1
  0
APPID
  5
12
330
9
100
AcDbSymbolTableRecord
100
AcDbRegAppTableRecord
  2
ACAD
 70
    0
  0
APPID
  5
69
330
9
100
AcDbSymbolTableRecord
100
AcDbRegAppTableRecord
  2
LibreCad
 70
    0
  0
ENDTAB
  0
TABLE
  2
DIMSTYLE
  5
A
330
0
100
AcDbSymbolTable
 70
    1
100
AcDbDimStyleTable
 71
    1
  0
DIMSTYLE
105
6A
330
A
100
AcDbSymbolTableRecord
100
AcDbDimStyleTableRecord
  2
Standard
 70
    0
 40
1
 41
2.5
 42
0.625
 43
0.38
 44
1.25
 45
0
 46
0
 47
0
 48
0
 49
1
140
2.5
141
0.09
142
2.5
143
25.4
144
1
145
0
146
1
147
0.625
148
0
 71
    0
 72
    0
 73
    0
 74
    1
 75
    0
 76
    0
 77
    0
 78
    1
 79
    0
170
    0
171
    2
172
    0
173
    0
174
    0
175
    0
176
    0
177
    0
178
    0
179
    0
271
    2
272
    4
273
    2
274
    2
275
    0
276
    0
277
    2
278
    0
279
    0
280
    0
281
    0
282
    0
283
    1
284
    0
285
    0
286
    0
288
    0
289
    3
340
standard
341

371
   -2
372
   -2
  0
ENDTAB
  0
TABLE
  2
BLOCK_RECORD
  5
1
330
0
100
AcDbSymbolTable
 70
    2
  0
BLOCK_RECORD
  5
1F
330
1
100
AcDbSymbolTableRecord
100
AcDbBlockTableRecord
  2
*Model_Space
 70
    0
280
    1
281
    0
  0
BLOCK_RECORD
  5
1E
330
1
100
AcDbSymbolTableRecord
100
AcDbBlockTableRecord
  2
*Paper_Space
 70
    0
280
    1
281
    0
  0
ENDTAB
  0
ENDSEC
  0
SECTION
  2
BLOCKS
  0
BLOCK
  5
20
330
1F
100
AcDbEntity
  8
0
100
AcDbBlockBegin
  2
*Model_Space
 70
    0
 10
0
 20
0
 30
0
  3
*Model_Space
  1

  0
ENDBLK
  5
21
330
1F
100
AcDbEntity
  8
0
100
AcDbBlockEnd
  0
BLOCK
  5
1C
330
1B
100
AcDbEntity
  8
0
100
AcDbBlockBegin
  2
*Paper_Space
 70
    0
 10
0
 20
0
 30
0
  3
*Paper_Space
  1

  0
ENDBLK
  5
1D
330
1F
100
AcDbEntity
  8
0
100
AcDbBlockEnd
  0
ENDSEC
  0
SECTION
  2
ENTITIES
  0
LINE
  5
6B
100
AcDbEntity
  8
BLACK
  6
CONTINUOUS
 62
  256
370
   -1
100
AcDbLine
 10
100.552
 20
-95.0183
 11
100.674
 21
-95.0889
  0
LINE
  5
6C
100
AcDbEntity
  8
BLACK
  6
CONTINUOUS
 62
  256
370
   -1
100
AcDbLine
 10
100.674
 20
-95.0889
 11
100.765
 21
-95.1969
  0
LINE
  5
6D
100
AcDbEntity
  8
BLACK
  6
CONTINUOUS
 62
  256
370
   -1
100
AcDbLine
 10
100.765
 20
-95.1969
 11
100.813
 21
-95.3295
  0
LINE
  5
6E
100
AcDbEntity
  8
BLACK
  6
CONTINUOUS
 62
  256
370
   -1
100
AcDbLine
 10
100.813
 20
-95.3295
 11
100.813
 21
-95.4705
  0
LINE
  5
6F
100
AcDbEntity
  8
BLACK
  6
CONTINUOUS
 62
  256
370
   -1
100
AcDbLine
 10
100.813
 20
-95.4705
 11
100.765
 21
-95.6031
  0
LINE
  5
70
100
AcDbEntity
  8
BLACK
  6
CONTINUOUS
 62
  256
370
   -1
100
AcDbLine
 10
100.765
 20
-95.6031
 11
100.674
 21
-95.7111
  0
LINE
  5
71
100
AcDbEntity
  8
BLACK
  6
CONTINUOUS
 62
  256
370
   -1
100
AcDbLine
 10
100.674
 20
-95.7111
 11
100.552
 21
-95.7817
  0
LINE
  5
72
100
AcDbEntity
  8
BLACK
  6
CONTINUOUS
 62
  256
370
   -1
100
AcDbLine
 10
100.552
 20
-95.7817
 11
100.413
 21
-95.8062
  0
LINE
  5
73
100
AcDbEntity
  8
BLACK
  6
CONTINUOUS
 62
  256
370
   -1
100
AcDbLine
 10
100.413
 20
-95.8062
 11
100.274
 21
-95.7817
  0
LINE
  5
74
100
AcDbEntity
  8
BLACK
  6
CONTINUOUS
 62
  256
370
   -1
100
AcDbLine
 10
100.274
 20
-95.7817
 11
100.255
 21
-95.7705
  0
LINE
  5
75
100
AcDbEntity
  8
BLACK
  6
CONTINUOUS
 62
  256
370
   -1
100
AcDbLine
 10
100.255
 20
-95.7705
 11
100.128
 21
-95.8968
  0
LINE
  5
76
100
AcDbEntity
  8
BLACK
  6
CONTINUOUS
 62
  256
370
   -1
100
AcDbLine
 10
100.128
 20
-95.8968
 11
100.128
 21
-95.8968
  0
LINE
  5
77
100
AcDbEntity
  8
BLACK
  6
CONTINUOUS
 62
  256
370
   -1
100
AcDbLine
 10
100.128
 20
-95.8968
 11
98.75
 21
-97.2752
  0
LINE
  5
78
100
AcDbEntity
  8
BLACK
  6
CONTINUOUS
 62
  256
370
   -1
100
AcDbLine
 10
98.75
 20
-97.2752
 11
98.75
 21
-109.544
  0
LINE
  5
79
100
AcDbEntity
  8
BLACK
  6
CONTINUOUS
 62
  256
370
   -1
100
AcDbLine
 10
98.75
 20
-109.544
 11
98.8014
 21
-109.595
  0
LINE
  5
7A
100
AcDbEntity
  8
BLACK
  6
CONTINUOUS
 62
  256
370
   -1
100
AcDbLine
 10
98.8014
 20
-109.595
 11
98.8167
 21
-109.608
  0
LINE
  5
7B
100
AcDbEntity
  8
BLACK
  6
CONTINUOUS
 62
  256
370
   -1
100
AcDbLine
 10
98.8167
 20
-109.608
 11
98.8266
 21
-109.625
  0
LINE
  5
7C
100
AcDbEntity
  8
BLACK
  6
CONTINUOUS
 62
  256
370
   -1
100
AcDbLine
 10
98.8266
 20
-109.625
 11
98.83799999999999
 21
-109.642
  0
LINE
  5
7D
100
AcDbEntity
  8
BLACK
  6
CONTINUOUS
 62
  256
370
   -1
100
AcDbLine
 10
98.83799999999999
 20
-109.642
 11
98.8398
 21
-109.648
  0
LINE
  5
7E
100
AcDbEntity
  8
BLACK
  6
CONTINUOUS
 62
  256
370
   -1
100
AcDbLine
 10
98.8398
 20
-109.648
 11
98.84310000000001
 21
-109.654
  0
LINE
  5
7F
100
AcDbEntity
  8
BLACK
  6
CONTINUOUS
 62
  256
370
   -1
100
AcDbLine
 10
98.84310000000001
 20
-109.654
 11
98.8466
 21
-109.674
  0
LINE
  5
80
100
AcDbEntity
  8
BLACK
  6
CONTINUOUS
 62
  256
370
   -1
100
AcDbLine
 10
98.8466
 20
-109.674
 11
98.85169999999999
 21
-109.693
  0
LINE
  5
81
100
AcDbEntity
  8
BLACK
  6
CONTINUOUS
 62
  256
370
   -1
100
AcDbLine
 10
98.85169999999999
 20
-109.693
 11
98.84999999999999
 21
-109.713
  0
LINE
  5
82
100
AcDbEntity
  8
BLACK
  6
CONTINUOUS
 62
  256
370
   -1
100
AcDbLine
 10
98.84999999999999
 20
-109.713
 11
98.84999999999999
 21
-124.538
  0
LINE
  5
83
100
AcDbEntity
  8
BLACK
  6
CONTINUOUS
 62
  256
370
   -1
100
AcDbLine
 10
98.84999999999999
 20
-124.538
 11
108.262
 21
-133.95
  0
LINE
  5
84
100
AcDbEntity
  8
BLACK
  6
CONTINUOUS
 62
  256
370
   -1
100
AcDbLine
 10
108.262
 20
-133.95
 11
135.218
 21
-133.95
  0
LINE
  5
85
100
AcDbEntity
  8
BLACK
  6
CONTINUOUS
 62
  256
370
   -1
100
AcDbLine
 10
135.218
 20
-133.95
 11
137.38
 21
-131.788
  0
LINE
  5
86
100
AcDbEntity
  8
BLACK
  6
CONTINUOUS
 62
  256
370
   -1
100
AcDbLine
 10
137.38
 20
-131.788
 11
137.333
 21
-131.732
  0
LINE
  5
87
100
AcDbEntity
  8
BLACK
  6
CONTINUOUS
 62
  256
370
   -1
100
AcDbLine
 10
137.333
 20
-131.732
 11
137.23
 21
-131.45
  0
LINE
  5
88
100
AcDbEntity
  8
BLACK
  6
CONTINUOUS
 62
  256
370
   -1
100
AcDbLine
 10
137.23
 20
-131.45
 11
137.23
 21
-131.15
  0
LINE
  5
89
100
AcDbEntity
  8
BLACK
  6
CONTINUOUS
 62
  256
370
   -1
100
AcDbLine
 10
137.23
 20
-131.15
 11
137.333
 21
-130.868
  0
LINE
  5
8A
100
AcDbEntity
  8
BLACK
  6
CONTINUOUS
 62
  256
370
   -1
100
AcDbLine
 10
137.333
 20
-130.868
 11
137.525
 21
-130.639
  0
LINE
  5
8B
100
AcDbEntity
  8
BLACK
  6
CONTINUOUS
 62
  256
370
   -1
100
AcDbLine
 10
137.525
 20
-130.639
 11
137.785
 21
-130.489
  0
LINE
  5
8C
100
AcDbEntity
  8
BLACK
  6
CONTINUOUS
 62
  256
370
   -1
100
AcDbLine
 10
137.785
 20
-130.489
 11
138.006
 21
-130.45
  0
LINE
  5
8D
100
AcDbEntity
  8
BLACK
  6
CONTINUOUS
 62
  256
370
   -1
100
AcDbLine
 10
138.006
 20
-130.45
 11
138.154
 21
-130.45
  0
LINE
  5
8E
100
AcDbEntity
  8
BLACK
  6
CONTINUOUS
 62
  256
370
   -1
100
AcDbLine
 10
138.154
 20
-130.45
 11
138.375
 21
-130.489
  0
LINE
  5
8F
100
AcDbEntity
  8
BLACK
  6
CONTINUOUS
 62
  256
370
   -1
100
AcDbLine
 10
138.375
 20
-130.489
 11
138.635
 21
-130.639
  0
LINE
  5
90
100
AcDbEntity
  8
BLACK
  6
CONTINUOUS
 62
  256
370
   -1
100
AcDbLine
 10
138.635
 20
-130.639
 11
138.827
 21
-130.868
  0
LINE
  5
91
100
AcDbEntity
  8
BLACK
  6
CONTINUOUS
 62
  256
370
   -1
100
AcDbLine
 10
138.827
 20
-130.868
 11
138.93
 21
-131.15
  0
LINE
  5
92
100
AcDbEntity
  8
BLACK
  6
CONTINUOUS
 62
  256
370
   -1
100
AcDbLine
 10
138.93
 20
-131.15
 11
138.93
 21
-131.45
  0
LINE
  5
93
100
AcDbEntity
  8
BLACK
  6
CONTINUOUS
 62
  256
370
   -1
100
AcDbLine
 10
138.93
 20
-131.45
 11
138.827
 21
-131.732
  0
LINE
  5
94
100
AcDbEntity
  8
BLACK
  6
CONTINUOUS
 62
  256
370
   -1
100
AcDbLine
 10
138.827
 20
-131.732
 11
138.635
 21
-131.961
  0
LINE
  5
95
100
AcDbEntity
  8
BLACK
  6
CONTINUOUS
 62
  256
370
   -1
100
AcDbLine
 10
138.635
 20
-131.961
 11
138.375
 21
-132.111
  0
LINE
  5
96
100
AcDbEntity
  8
BLACK
  6
CONTINUOUS
 62
  256
370
   -1
100
AcDbLine
 10
138.375
 20
-132.111
 11
138.154
 21
-132.15
  0
LINE
  5
97
100
AcDbEntity
  8
BLACK
  6
CONTINUOUS
 62
  256
370
   -1
100
AcDbLine
 10
138.154
 20
-132.15
 11
138.006
 21
-132.15
  0
LINE
  5
98
100
AcDbEntity
  8
BLACK
  6
CONTINUOUS
 62
  256
370
   -1
100
AcDbLine
 10
138.006
 20
-132.15
 11
137.785
 21
-132.111
  0
LINE
  5
99
100
AcDbEntity
  8
BLACK
  6
CONTINUOUS
 62
  256
370
   -1
100
AcDbLine
 10
137.785
 20
-132.111
 11
137.592
 21
-132
  0
LINE
  5
9A
100
AcDbEntity
  8
BLACK
  6
CONTINUOUS
 62
  256
370
   -1
100
AcDbLine
 10
137.592
 20
-132
 11
135.391
 21
-134.201
  0
LINE
  5
9B
100
AcDbEntity
  8
BLACK
  6
CONTINUOUS
 62
  256
370
   -1
100
AcDbLine
 10
135.391
 20
-134.201
 11
135.378
 21
-134.217
  0
LINE
  5
9C
100
AcDbEntity
  8
BLACK
  6
CONTINUOUS
 62
  256
370
   -1
100
AcDbLine
 10
135.378
 20
-134.217
 11
135.361
 21
-134.227
  0
LINE
  5
9D
100
AcDbEntity
  8
BLACK
  6
CONTINUOUS
 62
  256
370
   -1
100
AcDbLine
 10
135.361
 20
-134.227
 11
135.344
 21
-134.238
  0
LINE
  5
9E
100
AcDbEntity
  8
BLACK
  6
CONTINUOUS
 62
  256
370
   -1
100
AcDbLine
 10
135.344
 20
-134.238
 11
135.338
 21
-134.24
  0
LINE
  5
9F
100
AcDbEntity
  8
BLACK
  6
CONTINUOUS
 62
  256
370
   -1
100
AcDbLine
 10
135.338
 20
-134.24
 11
135.332
 21
-134.243
  0
LINE
  5
A0
100
AcDbEntity
  8
BLACK
  6
CONTINUOUS
 62
  256
370
   -1
100
AcDbLine
 10
135.332
 20
-134.243
 11
135.312
 21
-134.247
  0
LINE
  5
A1
100
AcDbEntity
  8
BLACK
  6
CONTINUOUS
 62
  256
370
   -1
100
AcDbLine
 10
135.312
 20
-134.247
 11
135.293
 21
-134.252
  0
LINE
  5
A2
100
AcDbEntity
  8
BLACK
  6
CONTINUOUS
 62
  256
370
   -1
100
AcDbLine
 10
135.293
 20
-134.252
 11
135.273
 21
-134.25
  0
LINE
  5
A3
100
AcDbEntity
  8
BLACK
  6
CONTINUOUS
 62
  256
370
   -1
100
AcDbLine
 10
135.273
 20
-134.25
 11
108.207
 21
-134.25
  0
LINE
  5
A4
100
AcDbEntity
  8
BLACK
  6
CONTINUOUS
 62
  256
370
   -1
100
AcDbLine
 10
108.207
 20
-134.25
 11
108.187
 21
-134.252
  0
LINE
  5
A5
100
AcDbEntity
  8
BLACK
  6
CONTINUOUS
 62
  256
370
   -1
100
AcDbLine
 10
108.187
 20
-134.252
 11
108.168
 21
-134.247
  0
LINE
  5
A6
100
AcDbEntity
  8
BLACK
  6
CONTINUOUS
 62
  256
370
   -1
100
AcDbLine
 10
108.168
 20
-134.247
 11
108.148
 21
-134.243
  0
LINE
  5
A7
100
AcDbEntity
  8
BLACK
  6
CONTINUOUS
 62
  256
370
   -1
100
AcDbLine
 10
108.148
 20
-134.243
 11
108.142
 21
-134.24
  0
LINE
  5
A8
100
AcDbEntity
  8
BLACK
  6
CONTINUOUS
 62
  256
370
   -1
100
AcDbLine
 10
108.142
 20
-134.24
 11
108.136
 21
-134.238
  0
LINE
  5
A9
100
AcDbEntity
  8
BLACK
  6
CONTINUOUS
 62
  256
370
   -1
100
AcDbLine
 10
108.136
 20
-134.238
 11
108.119
 21
-134.227
  0
LINE
  5
AA
100
AcDbEntity
  8
BLACK
  6
CONTINUOUS
 62
  256
370
   -1
100
AcDbLine
 10
108.119
 20
-134.227
 11
108.102
 21
-134.217
  0
LINE
  5
AB
100
AcDbEntity
  8
BLACK
  6
CONTINUOUS
 62
  256
370
   -1
100
AcDbLine
 10
108.102
 20
-134.217
 11
108.089
 21
-134.201
  0
LINE
  5
AC
100
AcDbEntity
  8
BLACK
  6
CONTINUOUS
 62
  256
370
   -1
100
AcDbLine
 10
108.089
 20
-134.201
 11
98.5986
 21
-124.711
  0
LINE
  5
AD
100
AcDbEntity
  8
BLACK
  6
CONTINUOUS
 62
  256
370
   -1
100
AcDbLine
 10
98.5986
 20
-124.711
 11
98.58329999999999
 21
-124.698
  0
LINE
  5
AE
100
AcDbEntity
  8
BLACK
  6
CONTINUOUS
 62
  256
370
   -1
100
AcDbLine
 10
98.58329999999999
 20
-124.698
 11
98.57340000000001
 21
-124.681
  0
LINE
  5
AF
100
AcDbEntity
  8
BLACK
  6
CONTINUOUS
 62
  256
370
   -1
100
AcDbLine
 10
98.57340000000001
 20
-124.681
 11
98.562
 21
-124.664
  0
LINE
  5
B0
100
AcDbEntity
  8
BLACK
  6
CONTINUOUS
 62
  256
370
   -1
100
AcDbLine
 10
98.562
 20
-124.664
 11
98.56019999999999
 21
-124.658
  0
LINE
  5
B1
100
AcDbEntity
  8
BLACK
  6
CONTINUOUS
 62
  256
370
   -1
100
AcDbLine
 10
98.56019999999999
 20
-124.658
 11
98.5569
 21
-124.652
  0
LINE
  5
B2
100
AcDbEntity
  8
BLACK
  6
CONTINUOUS
 62
  256
370
   -1
100
AcDbLine
 10
98.5569
 20
-124.652
 11
98.5534
 21
-124.632
  0
LINE
  5
B3
100
AcDbEntity
  8
BLACK
  6
CONTINUOUS
 62
  256
370
   -1
100
AcDbLine
 10
98.5534
 20
-124.632
 11
98.5483
 21
-124.613
  0
LINE
  5
B4
100
AcDbEntity
  8
BLACK
  6
CONTINUOUS
 62
  256
370
   -1
100
AcDbLine
 10
98.5483
 20
-124.613
 11
98.55
 21
-124.593
  0
LINE
  5
B5
100
AcDbEntity
  8
BLACK
  6
CONTINUOUS
 62
  256
370
   -1
100
AcDbLine
 10
98.55
 20
-124.593
 11
98.55
 21
-109.768
  0
LINE
  5
B6
100
AcDbEntity
  8
BLACK
  6
CONTINUOUS
 62
  256
370
   -1
100
AcDbLine
 10
98.55
 20
-109.768
 11
98.4986
 21
-109.717
  0
LINE
  5
B7
100
AcDbEntity
  8
BLACK
  6
CONTINUOUS
 62
  256
370
   -1
100
AcDbLine
 10
98.4986
 20
-109.717
 11
98.4833
 21
-109.704
  0
LINE
  5
B8
100
AcDbEntity
  8
BLACK
  6
CONTINUOUS
 62
  256
370
   -1
100
AcDbLine
 10
98.4833
 20
-109.704
 11
98.4734
 21
-109.687
  0
LINE
  5
B9
100
AcDbEntity
  8
BLACK
  6
CONTINUOUS
 62
  256
370
   -1
100
AcDbLine
 10
98.4734
 20
-109.687
 11
98.462
 21
-109.67
  0
LINE
  5
BA
100
AcDbEntity
  8
BLACK
  6
CONTINUOUS
 62
  256
370
   -1
100
AcDbLine
 10
98.462
 20
-109.67
 11
98.4602
 21
-109.664
  0
LINE
  5
BB
100
AcDbEntity
  8
BLACK
  6
CONTINUOUS
 62
  256
370
   -1
100
AcDbLine
 10
98.4602
 20
-109.664
 11
98.4569
 21
-109.658
  0
LINE
  5
BC
100
AcDbEntity
  8
BLACK
  6
CONTINUOUS
 62
  256
370
   -1
100
AcDbLine
 10
98.4569
 20
-109.658
 11
98.4534
 21
-109.638
  0
LINE
  5
BD
100
AcDbEntity
  8
BLACK
  6
CONTINUOUS
 62
  256
370
   -1
100
AcDbLine
 10
98.4534
 20
-109.638
 11
98.4483
 21
-109.619
  0
LINE
  5
BE
100
AcDbEntity
  8
BLACK
  6
CONTINUOUS
 62
  256
370
   -1
100
AcDbLine
 10
98.4483
 20
-109.619
 11
98.45
 21
-109.599
  0
LINE
  5
BF
100
AcDbEntity
  8
BLACK
  6
CONTINUOUS
 62
  256
370
   -1
100
AcDbLine
 10
98.45
 20
-109.599
 11
98.45
 21
-97.2196
  0
LINE
  5
C0
100
AcDbEntity
  8
BLACK
  6
CONTINUOUS
 62
  256
370
   -1
100
AcDbLine
 10
98.45
 20
-97.2196
 11
98.4483
 21
-97.19970000000001
  0
LINE
  5
C1
100
AcDbEntity
  8
BLACK
  6
CONTINUOUS
 62
  256
370
   -1
100
AcDbLine
 10
98.4483
 20
-97.19970000000001
 11
98.4534
 21
-97.18049999999999
  0
LINE
  5
C2
100
AcDbEntity
  8
BLACK
  6
CONTINUOUS
 62
  256
370
   -1
100
AcDbLine
 10
98.4534
 20
-97.18049999999999
 11
98.4569
 21
-97.1609
  0
LINE
  5
C3
100
AcDbEntity
  8
BLACK
  6
CONTINUOUS
 62
  256
370
   -1
100
AcDbLine
 10
98.4569
 20
-97.1609
 11
98.4602
 21
-97.1551
  0
LINE
  5
C4
100
AcDbEntity
  8
BLACK
  6
CONTINUOUS
 62
  256
370
   -1
100
AcDbLine
 10
98.4602
 20
-97.1551
 11
98.462
 21
-97.14870000000001
  0
LINE
  5
C5
100
AcDbEntity
  8
BLACK
  6
CONTINUOUS
 62
  256
370
   -1
100
AcDbLine
 10
98.462
 20
-97.14870000000001
 11
98.4734
 21
-97.1324
  0
LINE
  5
C6
100
AcDbEntity
  8
BLACK
  6
CONTINUOUS
 62
  256
370
   -1
100
AcDbLine
 10
98.4734
 20
-97.1324
 11
98.4833
 21
-97.1151
  0
LINE
  5
C7
100
AcDbEntity
  8
BLACK
  6
CONTINUOUS
 62
  256
370
   -1
100
AcDbLine
 10
98.4833
 20
-97.1151
 11
98.4986
 21
-97.1023
  0
LINE
  5
C8
100
AcDbEntity
  8
BLACK
  6
CONTINUOUS
 62
  256
370
   -1
100
AcDbLine
 10
98.4986
 20
-97.1023
 11
99.9162
 21
-95.68470000000001
  0
LINE
  5
C9
100
AcDbEntity
  8
BLACK
  6
CONTINUOUS
 62
  256
370
   -1
100
AcDbLine
 10
99.9162
 20
-95.68470000000001
 11
99.9162
 21
-95.68470000000001
  0
LINE
  5
CA
100
AcDbEntity
  8
BLACK
  6
CONTINUOUS
 62
  256
370
   -1
100
AcDbLine
 10
99.9162
 20
-95.68470000000001
 11
100.044
 21
-95.5566
  0
LINE
  5
CB
100
AcDbEntity
  8
BLACK
  6
CONTINUOUS
 62
  256
370
   -1
100
AcDbLine
 10
100.044
 20
-95.5566
 11
100.013
 21
-95.4705
  0
LINE
  5
CC
100
AcDbEntity
  8
BLACK
  6
CONTINUOUS
 62
  256
370
   -1
100
AcDbLine
 10
100.013
 20
-95.4705
 11
100.013
 21
-95.3295
  0
LINE
  5
CD
100
AcDbEntity
  8
BLACK
  6
CONTINUOUS
 62
  256
370
   -1
100
AcDbLine
 10
100.013
 20
-95.3295
 11
100.061
 21
-95.1969
  0
LINE
  5
CE
100
AcDbEntity
  8
BLACK
  6
CONTINUOUS
 62
  256
370
   -1
100
AcDbLine
 10
100.061
 20
-95.1969
 11
100.152
 21
-95.0889
  0
LINE
  5
CF
100
AcDbEntity
  8
BLACK
  6
CONTINUOUS
 62
  256
370
   -1
100
AcDbLine
 10
100.152
 20
-95.0889
 11
100.274
 21
-95.0183
  0
LINE
  5
D0
100
AcDbEntity
  8
BLACK
  6
CONTINUOUS
 62
  256
370
   -1
100
AcDbLine
 10
100.274
 20
-95.0183
 11
100.413
 21
-94.99379999999999
  0
LINE
  5
D1
100
AcDbEntity
  8
BLACK
  6
CONTINUOUS
 62
  256
370
   -1
100
AcDbLine
 10
100.413
 20
-94.99379999999999
 11
100.552
 21
-95.0183
  0
LINE
  5
D2
100
AcDbEntity
  8
BLACK
  6
CONTINUOUS
 62
  256
370
   -1
100
AcDbLine
 10
101.639
 20
-131.718
 11
101.761
 21
-131.789
  0
LINE
  5
D3
100
AcDbEntity
  8
BLACK
  6
CONTINUOUS
 62
  256
370
   -1
100
AcDbLine
 10
101.761
 20
-131.789
 11
101.852
 21
-131.897
  0
LINE
  5
D4
100
AcDbEntity
  8
BLACK
  6
CONTINUOUS
 62
  256
370
   -1
100
AcDbLine
 10
101.852
 20
-131.897
 11
101.9
 21
-132.029
  0
LINE
  5
D5
100
AcDbEntity
  8
BLACK
  6
CONTINUOUS
 62
  256
370
   -1
100
AcDbLine
 10
101.9
 20
-132.029
 11
101.9
 21
-132.171
  0
LINE
  5
D6
100
AcDbEntity
  8
BLACK
  6
CONTINUOUS
 62
  256
370
   -1
100
AcDbLine
 10
101.9
 20
-132.171
 11
101.852
 21
-132.303
  0
LINE
  5
D7
100
AcDbEntity
  8
BLACK
  6
CONTINUOUS
 62
  256
370
   -1
100
AcDbLine
 10
101.852
 20
-132.303
 11
101.761
 21
-132.411
  0
LINE
  5
D8
100
AcDbEntity
  8
BLACK
  6
CONTINUOUS
 62
  256
370
   -1
100
AcDbLine
 10
101.761
 20
-132.411
 11
101.639
 21
-132.482
  0
LINE
  5
D9
100
AcDbEntity
  8
BLACK
  6
CONTINUOUS
 62
  256
370
   -1
100
AcDbLine
 10
101.639
 20
-132.482
 11
101.5
 21
-132.506
  0
LINE
  5
DA
100
AcDbEntity
  8
BLACK
  6
CONTINUOUS
 62
  256
370
   -1
100
AcDbLine
 10
101.5
 20
-132.506
 11
101.361
 21
-132.482
  0
LINE
  5
DB
100
AcDbEntity
  8
BLACK
  6
CONTINUOUS
 62
  256
370
   -1
100
AcDbLine
 10
101.361
 20
-132.482
 11
101.239
 21
-132.411
  0
LINE
  5
DC
100
AcDbEntity
  8
BLACK
  6
CONTINUOUS
 62
  256
370
   -1
100
AcDbLine
 10
101.239
 20
-132.411
 11
101.148
 21
-132.303
  0
LINE
  5
DD
100
AcDbEntity
  8
BLACK
  6
CONTINUOUS
 62
  256
370
   -1
100
AcDbLine
 10
101.148
 20
-132.303
 11
101.1
 21
-132.171
  0
LINE
  5
DE
100
AcDbEntity
  8
BLACK
  6
CONTINUOUS
 62
  256
370
   -1
100
AcDbLine
 10
101.1
 20
-132.171
 11
101.1
 21
-132.029
  0
LINE
  5
DF
100
AcDbEntity
  8
BLACK
  6
CONTINUOUS
 62
  256
370
   -1
100
AcDbLine
 10
101.1
 20
-132.029
 11
101.148
 21
-131.897
  0
LINE
  5
E0
100
AcDbEntity
  8
BLACK
  6
CONTINUOUS
 62
  256
370
   -1
100
AcDbLine
 10
101.148
 20
-131.897
 11
101.239
 21
-131.789
  0
LINE
  5
E1
100
AcDbEntity
  8
BLACK
  6
CONTINUOUS
 62
  256
370
   -1
100
AcDbLine
 10
101.239
 20
-131.789
 11
101.361
 21
-131.718
  0
LINE
  5
E2
100
AcDbEntity
  8
BLACK
  6
CONTINUOUS
 62
  256
370
   -1
100
AcDbLine
 10
101.361
 20
-131.718
 11
101.5
 21
-131.694
  0
LINE
  5
E3
100
AcDbEntity
  8
BLACK
  6
CONTINUOUS
 62
  256
370
   -1
100
AcDbLine
 10
101.5
 20
-131.694
 11
101.639
 21
-131.718
  0
LINE
  5
E4
100
AcDbEntity
  8
BLACK
  6
CONTINUOUS
 62
  256
370
   -1
100
AcDbLine
 10
135.835
 20
-130.489
 11
136.095
 21
-130.639
  0
LINE
  5
E5
100
AcDbEntity
  8
BLACK
  6
CONTINUOUS
 62
  256
370
   -1
100
AcDbLine
 10
136.095
 20
-130.639
 11
136.287
 21
-130.868
  0
LINE
  5
E6
100
AcDbEntity
  8
BLACK
  6
CONTINUOUS
 62
  256
370
   -1
100
AcDbLine
 10
136.287
 20
-130.868
 11
136.39
 21
-131.15
  0
LINE
  5
E7
100
AcDbEntity
  8
BLACK
  6
CONTINUOUS
 62
  256
370
   -1
100
AcDbLine
 10
136.39
 20
-131.15
 11
136.39
 21
-131.45
  0
LINE
  5
E8
100
AcDbEntity
  8
BLACK
  6
CONTINUOUS
 62
  256
370
   -1
100
AcDbLine
 10
136.39
 20
-131.45
 11
136.287
 21
-131.732
  0
LINE
  5
E9
100
AcDbEntity
  8
BLACK
  6
CONTINUOUS
 62
  256
370
   -1
100
AcDbLine
 10
136.287
 20
-131.732
 11
136.095
 21
-131.961
  0
LINE
  5
EA
100
AcDbEntity
  8
BLACK
  6
CONTINUOUS
 62
  256
370
   -1
100
AcDbLine
 10
136.095
 20
-131.961
 11
135.835
 21
-132.111
  0
LINE
  5
EB
100
AcDbEntity
  8
BLACK
  6
CONTINUOUS
 62
  256
370
   -1
100
AcDbLine
 10
135.835
 20
-132.111
 11
135.614
 21
-132.15
  0
LINE
  5
EC
100
AcDbEntity
  8
BLACK
  6
CONTINUOUS
 62
  256
370
   -1
100
AcDbLine
 10
135.614
 20
-132.15
 11
135.466
 21
-132.15
  0
LINE
  5
ED
100
AcDbEntity
  8
BLACK
  6
CONTINUOUS
 62
  256
370
   -1
100
AcDbLine
 10
135.466
 20
-132.15
 11
135.245
 21
-132.111
  0
LINE
  5
EE
100
AcDbEntity
  8
BLACK
  6
CONTINUOUS
 62
  256
370
   -1
100
AcDbLine
 10
135.245
 20
-132.111
 11
134.985
 21
-131.961
  0
LINE
  5
EF
100
AcDbEntity
  8
BLACK
  6
CONTINUOUS
 62
  256
370
   -1
100
AcDbLine
 10
134.985
 20
-131.961
 11
134.793
 21
-131.732
  0
LINE
  5
F0
100
AcDbEntity
  8
BLACK
  6
CONTINUOUS
 62
  256
370
   -1
100
AcDbLine
 10
134.793
 20
-131.732
 11
134.69
 21
-131.45
  0
LINE
  5
F1
100
AcDbEntity
  8
BLACK
  6
CONTINUOUS
 62
  256
370
   -1
100
AcDbLine
 10
134.69
 20
-131.45
 11
134.69
 21
-131.15
  0
LINE
  5
F2
100
AcDbEntity
  8
BLACK
  6
CONTINUOUS
 62
  256
370
   -1
100
AcDbLine
 10
134.69
 20
-131.15
 11
134.793
 21
-130.868
  0
LINE
  5
F3
100
AcDbEntity
  8
BLACK
  6
CONTINUOUS
 62
  256
370
   -1
100
AcDbLine
 10
134.793
 20
-130.868
 11
134.985
 21
-130.639
  0
LINE
  5
F4
100
AcDbEntity
  8
BLACK
  6
CONTINUOUS
 62
  256
370
   -1
100
AcDbLine
 10
134.985
 20
-130.639
 11
135.245
 21
-130.489
  0
LINE
  5
F5
100
AcDbEntity
  8
BLACK
  6
CONTINUOUS
 62
  256
370
   -1
100
AcDbLine
 10
135.245
 20
-130.489
 11
135.466
 21
-130.45
  0
LINE
  5
F6
100
AcDbEntity
  8
BLACK
  6
CONTINUOUS
 62
  256
370
   -1
100
AcDbLine
 10
135.466
 20
-130.45
 11
135.614
 21
-130.45
  0
LINE
  5
F7
100
AcDbEntity
  8
BLACK
  6
CONTINUOUS
 62
  256
370
   -1
100
AcDbLine
 10
135.614
 20
-130.45
 11
135.835
 21
-130.489
  0
LINE
  5
F8
100
AcDbEntity
  8
BLACK
  6
CONTINUOUS
 62
  256
370
   -1
100
AcDbLine
 10
133.295
 20
-130.489
 11
133.555
 21
-130.639
  0
LINE
  5
F9
100
AcDbEntity
  8
BLACK
  6
CONTINUOUS
 62
  256
370
   -1
100
AcDbLine
 10
133.555
 20
-130.639
 11
133.747
 21
-130.868
  0
LINE
  5
FA
100
AcDbEntity
  8
BLACK
  6
CONTINUOUS
 62
  256
370
   -1
100
AcDbLine
 10
133.747
 20
-130.868
 11
133.85
 21
-131.15
  0
LINE
  5
FB
100
AcDbEntity
  8
BLACK
  6
CONTINUOUS
 62
  256
370
   -1
100
AcDbLine
 10
133.85
 20
-131.15
 11
133.85
 21
-131.45
  0
LINE
  5
FC
100
AcDbEntity
  8
BLACK
  6
CONTINUOUS
 62
  256
370
   -1
100
AcDbLine
 10
133.85
 20
-131.45
 11
133.747
 21
-131.732
  0
LINE
  5
FD
100
AcDbEntity
  8
BLACK
  6
CONTINUOUS
 62
  256
370
   -1
100
AcDbLine
 10
133.747
 20
-131.732
 11
133.555
 21
-131.961
  0
LINE
  5
FE
100
AcDbEntity
  8
BLACK
  6
CONTINUOUS
 62
  256
370
   -1
100
AcDbLine
 10
133.555
 20
-131.961
 11
133.295
 21
-132.111
  0
LINE
  5
FF
100
AcDbEntity
  8
BLACK
  6
CONTINUOUS
 62
  256
370
   -1
100
AcDbLine
 10
133.295
 20
-132.111
 11
133.074
 21
-132.15
  0
LINE
  5
100
100
AcDbEntity
  8
BLACK
  6
CONTINUOUS
 62
  256
370
   -1
100
AcDbLine
 10
133.074
 20
-132.15
 11
132.926
 21
-132.15
  0
LINE
  5
101
100
AcDbEntity
  8
BLACK
  6
CONTINUOUS
 62
  256
370
   -1
100
AcDbLine
 10
132.926
 20
-132.15
 11
132.705
 21
-132.111
  0
LINE
  5
102
100
AcDbEntity
  8
BLACK
  6
CONTINUOUS
 62
  256
370
   -1
100
AcDbLine
 10
132.705
 20
-132.111
 11
132.445
 21
-131.961
  0
LINE
  5
103
100
AcDbEntity
  8
BLACK
  6
CONTINUOUS
 62
  256
370
   -1
100
AcDbLine
 10
132.445
 20
-131.961
 11
132.253
 21
-131.732
  0
LINE
  5
104
100
AcDbEntity
  8
BLACK
  6
CONTINUOUS
 62
  256
370
   -1
100
AcDbLine
 10
132.253
 20
-131.732
 11
132.15
 21
-131.45
  0
LINE
  5
105
100
AcDbEntity
  8
BLACK
  6
CONTINUOUS
 62
  256
370
   -1
100
AcDbLine
 10
132.15
 20
-131.45
 11
132.15
 21
-131.15
  0
LINE
  5
106
100
AcDbEntity
  8
BLACK
  6
CONTINUOUS
 62
  256
370
   -1
100
AcDbLine
 10
132.15
 20
-131.15
 11
132.253
 21
-130.868
  0
LINE
  5
107
100
AcDbEntity
  8
BLACK
  6
CONTINUOUS
 62
  256
370
   -1
100
AcDbLine
 10
132.253
 20
-130.868
 11
132.445
 21
-130.639
  0
LINE
  5
108
100
AcDbEntity
  8
BLACK
  6
CONTINUOUS
 62
  256
370
   -1
100
AcDbLine
 10
132.445
 20
-130.639
 11
132.705
 21
-130.489
  0
LINE
  5
109
100
AcDbEntity
  8
BLACK
  6
CONTINUOUS
 62
  256
370
   -1
100
AcDbLine
 10
132.705
 20
-130.489
 11
132.926
 21
-130.45
  0
LINE
  5
10A
100
AcDbEntity
  8
BLACK
  6
CONTINUOUS
 62
  256
370
   -1
100
AcDbLine
 10
132.926
 20
-130.45
 11
133.074
 21
-130.45
  0
LINE
  5
10B
100
AcDbEntity
  8
BLACK
  6
CONTINUOUS
 62
  256
370
   -1
100
AcDbLine
 10
133.074
 20
-130.45
 11
133.295
 21
-130.489
  0
LINE
  5
10C
100
AcDbEntity
  8
BLACK
  6
CONTINUOUS
 62
  256
370
   -1
100
AcDbLine
 10
130.755
 20
-130.489
 11
131.015
 21
-130.639
  0
LINE
  5
10D
100
AcDbEntity
  8
BLACK
  6
CONTINUOUS
 62
  256
370
   -1
100
AcDbLine
 10
131.015
 20
-130.639
 11
131.207
 21
-130.868
  0
LINE
  5
10E
100
AcDbEntity
  8
BLACK
  6
CONTINUOUS
 62
  256
370
   -1
100
AcDbLine
 10
131.207
 20
-130.868
 11
131.31
 21
-131.15
  0
LINE
  5
10F
100
AcDbEntity
  8
BLACK
  6
CONTINUOUS
 62
  256
370
   -1
100
AcDbLine
 10
131.31
 20
-131.15
 11
131.31
 21
-131.45
  0
LINE
  5
110
100
AcDbEntity
  8
BLACK
  6
CONTINUOUS
 62
  256
370
   -1
100
AcDbLine
 10
131.31
 20
-131.45
 11
131.207
 21
-131.732
  0
LINE
  5
111
100
AcDbEntity
  8
BLACK
  6
CONTINUOUS
 62
  256
370
   -1
100
AcDbLine
 10
131.207
 20
-131.732
 11
131.015
 21
-131.961
  0
LINE
  5
112
100
AcDbEntity
  8
BLACK
  6
CONTINUOUS
 62
  256
370
   -1
100
AcDbLine
 10
131.015
 20
-131.961
 11
130.755
 21
-132.111
  0
LINE
  5
113
100
AcDbEntity
  8
BLACK
  6
CONTINUOUS
 62
  256
370
   -1
100
AcDbLine
 10
130.755
 20
-132.111
 11
130.534
 21
-132.15
  0
LINE
  5
114
100
AcDbEntity
  8
BLACK
  6
CONTINUOUS
 62
  256
370
   -1
100
AcDbLine
 10
130.534
 20
-132.15
 11
130.386
 21
-132.15
  0
LINE
  5
115
100
AcDbEntity
  8
BLACK
  6
CONTINUOUS
 62
  256
370
   -1
100
AcDbLine
 10
130.386
 20
-132.15
 11
130.165
 21
-132.111
  0
LINE
  5
116
100
AcDbEntity
  8
BLACK
  6
CONTINUOUS
 62
  256
370
   -1
100
AcDbLine
 10
130.165
 20
-132.111
 11
129.905
 21
-131.961
  0
LINE
  5
117
100
AcDbEntity
  8
BLACK
  6
CONTINUOUS
 62
  256
370
   -1
100
AcDbLine
 10
129.905
 20
-131.961
 11
129.713
 21
-131.732
  0
LINE
  5
118
100
AcDbEntity
  8
BLACK
  6
CONTINUOUS
 62
  256
370
   -1
100
AcDbLine
 10
129.713
 20
-131.732
 11
129.61
 21
-131.45
  0
LINE
  5
119
100
AcDbEntity
  8
BLACK
  6
CONTINUOUS
 62
  256
370
   -1
100
AcDbLine
 10
129.61
 20
-131.45
 11
129.61
 21
-131.15
  0
LINE
  5
11A
100
AcDbEntity
  8
BLACK
  6
CONTINUOUS
 62
  256
370
   -1
100
AcDbLine
 10
129.61
 20
-131.15
 11
129.713
 21
-130.868
  0
LINE
  5
11B
100
AcDbEntity
  8
BLACK
  6
CONTINUOUS
 62
  256
370
   -1
100
AcDbLine
 10
129.713
 20
-130.868
 11
129.905
 21
-130.639
  0
LINE
  5
11C
100
AcDbEntity
  8
BLACK
  6
CONTINUOUS
 62
  256
370
   -1
100
AcDbLine
 10
129.905
 20
-130.639
 11
130.165
 21
-130.489
  0
LINE
  5
11D
100
AcDbEntity
  8
BLACK
  6
CONTINUOUS
 62
  256
370
   -1
100
AcDbLine
 10
130.165
 20
-130.489
 11
130.386
 21
-130.45
  0
LINE
  5
11E
100
AcDbEntity
  8
BLACK
  6
CONTINUOUS
 62
  256
370
   -1
100
AcDbLine
 10
130.386
 20
-130.45
 11
130.534
 21
-130.45
  0
LINE
  5
11F
100
AcDbEntity
  8
BLACK
  6
CONTINUOUS
 62
  256
370
   -1
100
AcDbLine
 10
130.534
 20
-130.45
 11
130.755
 21
-130.489
  0
LINE
  5
120
100
AcDbEntity
  8
BLACK
  6
CONTINUOUS
 62
  256
370
   -1
100
AcDbLine
 10
106.862
 20
-106.55
 11
110.993
 21
-106.55
  0
LINE
  5
121
100
AcDbEntity
  8
BLACK
  6
CONTINUOUS
 62
  256
370
   -1
100
AcDbLine
 10
110.993
 20
-106.55
 11
111.013
 21
-106.548
  0
LINE
  5
122
100
AcDbEntity
  8
BLACK
  6
CONTINUOUS
 62
  256
370
   -1
100
AcDbLine
 10
111.013
 20
-106.548
 11
111.032
 21
-106.553
  0
LINE
  5
123
100
AcDbEntity
  8
BLACK
  6
CONTINUOUS
 62
  256
370
   -1
100
AcDbLine
 10
111.032
 20
-106.553
 11
111.052
 21
-106.557
  0
LINE
  5
124
100
AcDbEntity
  8
BLACK
  6
CONTINUOUS
 62
  256
370
   -1
100
AcDbLine
 10
111.052
 20
-106.557
 11
111.058
 21
-106.56
  0
LINE
  5
125
100
AcDbEntity
  8
BLACK
  6
CONTINUOUS
 62
  256
370
   -1
100
AcDbLine
 10
111.058
 20
-106.56
 11
111.064
 21
-106.562
  0
LINE
  5
126
100
AcDbEntity
  8
BLACK
  6
CONTINUOUS
 62
  256
370
   -1
100
AcDbLine
 10
111.064
 20
-106.562
 11
111.081
 21
-106.573
  0
LINE
  5
127
100
AcDbEntity
  8
BLACK
  6
CONTINUOUS
 62
  256
370
   -1
100
AcDbLine
 10
111.081
 20
-106.573
 11
111.098
 21
-106.583
  0
LINE
  5
128
100
AcDbEntity
  8
BLACK
  6
CONTINUOUS
 62
  256
370
   -1
100
AcDbLine
 10
111.098
 20
-106.583
 11
111.111
 21
-106.599
  0
LINE
  5
129
100
AcDbEntity
  8
BLACK
  6
CONTINUOUS
 62
  256
370
   -1
100
AcDbLine
 10
111.111
 20
-106.599
 11
113.801
 21
-109.289
  0
LINE
  5
12A
100
AcDbEntity
  8
BLACK
  6
CONTINUOUS
 62
  256
370
   -1
100
AcDbLine
 10
113.801
 20
-109.289
 11
113.817
 21
-109.302
  0
LINE
  5
12B
100
AcDbEntity
  8
BLACK
  6
CONTINUOUS
 62
  256
370
   -1
100
AcDbLine
 10
113.817
 20
-109.302
 11
113.827
 21
-109.319
  0
LINE
  5
12C
100
AcDbEntity
  8
BLACK
  6
CONTINUOUS
 62
  256
370
   -1
100
AcDbLine
 10
113.827
 20
-109.319
 11
113.838
 21
-109.336
  0
LINE
  5
12D
100
AcDbEntity
  8
BLACK
  6
CONTINUOUS
 62
  256
370
   -1
100
AcDbLine
 10
113.838
 20
-109.336
 11
113.84
 21
-109.342
  0
LINE
  5
12E
100
AcDbEntity
  8
BLACK
  6
CONTINUOUS
 62
  256
370
   -1
100
AcDbLine
 10
113.84
 20
-109.342
 11
113.843
 21
-109.348
  0
LINE
  5
12F
100
AcDbEntity
  8
BLACK
  6
CONTINUOUS
 62
  256
370
   -1
100
AcDbLine
 10
113.843
 20
-109.348
 11
113.847
 21
-109.367
  0
LINE
  5
130
100
AcDbEntity
  8
BLACK
  6
CONTINUOUS
 62
  256
370
   -1
100
AcDbLine
 10
113.847
 20
-109.367
 11
113.852
 21
-109.387
  0
LINE
  5
131
100
AcDbEntity
  8
BLACK
  6
CONTINUOUS
 62
  256
370
   -1
100
AcDbLine
 10
113.852
 20
-109.387
 11
113.85
 21
-109.407
  0
LINE
  5
132
100
AcDbEntity
  8
BLACK
  6
CONTINUOUS
 62
  256
370
   -1
100
AcDbLine
 10
113.85
 20
-109.407
 11
113.85
 21
-114.538
  0
LINE
  5
133
100
AcDbEntity
  8
BLACK
  6
CONTINUOUS
 62
  256
370
   -1
100
AcDbLine
 10
113.85
 20
-114.538
 11
115.431
 21
-116.119
  0
LINE
  5
134
100
AcDbEntity
  8
BLACK
  6
CONTINUOUS
 62
  256
370
   -1
100
AcDbLine
 10
115.431
 20
-116.119
 11
115.446
 21
-116.132
  0
LINE
  5
135
100
AcDbEntity
  8
BLACK
  6
CONTINUOUS
 62
  256
370
   -1
100
AcDbLine
 10
115.446
 20
-116.132
 11
115.456
 21
-116.149
  0
LINE
  5
136
100
AcDbEntity
  8
BLACK
  6
CONTINUOUS
 62
  256
370
   -1
100
AcDbLine
 10
115.456
 20
-116.149
 11
115.467
 21
-116.165
  0
LINE
  5
137
100
AcDbEntity
  8
BLACK
  6
CONTINUOUS
 62
  256
370
   -1
100
AcDbLine
 10
115.467
 20
-116.165
 11
115.469
 21
-116.172
  0
LINE
  5
138
100
AcDbEntity
  8
BLACK
  6
CONTINUOUS
 62
  256
370
   -1
100
AcDbLine
 10
115.469
 20
-116.172
 11
115.473
 21
-116.177
  0
LINE
  5
139
100
AcDbEntity
  8
BLACK
  6
CONTINUOUS
 62
  256
370
   -1
100
AcDbLine
 10
115.473
 20
-116.177
 11
115.476
 21
-116.197
  0
LINE
  5
13A
100
AcDbEntity
  8
BLACK
  6
CONTINUOUS
 62
  256
370
   -1
100
AcDbLine
 10
115.476
 20
-116.197
 11
115.481
 21
-116.216
  0
LINE
  5
13B
100
AcDbEntity
  8
BLACK
  6
CONTINUOUS
 62
  256
370
   -1
100
AcDbLine
 10
115.481
 20
-116.216
 11
115.479
 21
-116.236
  0
LINE
  5
13C
100
AcDbEntity
  8
BLACK
  6
CONTINUOUS
 62
  256
370
   -1
100
AcDbLine
 10
115.479
 20
-116.236
 11
115.479
 21
-121.067
  0
LINE
  5
13D
100
AcDbEntity
  8
BLACK
  6
CONTINUOUS
 62
  256
370
   -1
100
AcDbLine
 10
115.479
 20
-121.067
 11
123.862
 21
-129.45
  0
LINE
  5
13E
100
AcDbEntity
  8
BLACK
  6
CONTINUOUS
 62
  256
370
   -1
100
AcDbLine
 10
123.862
 20
-129.45
 11
126.213
 21
-129.45
  0
LINE
  5
13F
100
AcDbEntity
  8
BLACK
  6
CONTINUOUS
 62
  256
370
   -1
100
AcDbLine
 10
126.213
 20
-129.45
 11
126.233
 21
-129.448
  0
LINE
  5
140
100
AcDbEntity
  8
BLACK
  6
CONTINUOUS
 62
  256
370
   -1
100
AcDbLine
 10
126.233
 20
-129.448
 11
126.252
 21
-129.453
  0
LINE
  5
141
100
AcDbEntity
  8
BLACK
  6
CONTINUOUS
 62
  256
370
   -1
100
AcDbLine
 10
126.252
 20
-129.453
 11
126.272
 21
-129.457
  0
LINE
  5
142
100
AcDbEntity
  8
BLACK
  6
CONTINUOUS
 62
  256
370
   -1
100
AcDbLine
 10
126.272
 20
-129.457
 11
126.278
 21
-129.46
  0
LINE
  5
143
100
AcDbEntity
  8
BLACK
  6
CONTINUOUS
 62
  256
370
   -1
100
AcDbLine
 10
126.278
 20
-129.46
 11
126.284
 21
-129.462
  0
LINE
  5
144
100
AcDbEntity
  8
BLACK
  6
CONTINUOUS
 62
  256
370
   -1
100
AcDbLine
 10
126.284
 20
-129.462
 11
126.301
 21
-129.473
  0
LINE
  5
145
100
AcDbEntity
  8
BLACK
  6
CONTINUOUS
 62
  256
370
   -1
100
AcDbLine
 10
126.301
 20
-129.473
 11
126.318
 21
-129.483
  0
LINE
  5
146
100
AcDbEntity
  8
BLACK
  6
CONTINUOUS
 62
  256
370
   -1
100
AcDbLine
 10
126.318
 20
-129.483
 11
126.331
 21
-129.499
  0
LINE
  5
147
100
AcDbEntity
  8
BLACK
  6
CONTINUOUS
 62
  256
370
   -1
100
AcDbLine
 10
126.331
 20
-129.499
 11
127.432
 21
-130.6
  0
LINE
  5
148
100
AcDbEntity
  8
BLACK
  6
CONTINUOUS
 62
  256
370
   -1
100
AcDbLine
 10
127.432
 20
-130.6
 11
127.625
 21
-130.489
  0
LINE
  5
149
100
AcDbEntity
  8
BLACK
  6
CONTINUOUS
 62
  256
370
   -1
100
AcDbLine
 10
127.625
 20
-130.489
 11
127.846
 21
-130.45
  0
LINE
  5
14A
100
AcDbEntity
  8
BLACK
  6
CONTINUOUS
 62
  256
370
   -1
100
AcDbLine
 10
127.846
 20
-130.45
 11
127.994
 21
-130.45
  0
LINE
  5
14B
100
AcDbEntity
  8
BLACK
  6
CONTINUOUS
 62
  256
370
   -1
100
AcDbLine
 10
127.994
 20
-130.45
 11
128.215
 21
-130.489
  0
LINE
  5
14C
100
AcDbEntity
  8
BLACK
  6
CONTINUOUS
 62
  256
370
   -1
100
AcDbLine
 10
128.215
 20
-130.489
 11
128.475
 21
-130.639
  0
LINE
  5
14D
100
AcDbEntity
  8
BLACK
  6
CONTINUOUS
 62
  256
370
   -1
100
AcDbLine
 10
128.475
 20
-130.639
 11
128.667
 21
-130.868
  0
LINE
  5
14E
100
AcDbEntity
  8
BLACK
  6
CONTINUOUS
 62
  256
370
   -1
100
AcDbLine
 10
128.667
 20
-130.868
 11
128.77
 21
-131.15
  0
LINE
  5
14F
100
AcDbEntity
  8
BLACK
  6
CONTINUOUS
 62
  256
370
   -1
100
AcDbLine
 10
128.77
 20
-131.15
 11
128.77
 21
-131.45
  0
LINE
  5
150
100
AcDbEntity
  8
BLACK
  6
CONTINUOUS
 62
  256
370
   -1
100
AcDbLine
 10
128.77
 20
-131.45
 11
128.667
 21
-131.732
  0
LINE
  5
151
100
AcDbEntity
  8
BLACK
  6
CONTINUOUS
 62
  256
370
   -1
100
AcDbLine
 10
128.667
 20
-131.732
 11
128.475
 21
-131.961
  0
LINE
  5
152
100
AcDbEntity
  8
BLACK
  6
CONTINUOUS
 62
  256
370
   -1
100
AcDbLine
 10
128.475
 20
-131.961
 11
128.215
 21
-132.111
  0
LINE
  5
153
100
AcDbEntity
  8
BLACK
  6
CONTINUOUS
 62
  256
370
   -1
100
AcDbLine
 10
128.215
 20
-132.111
 11
127.994
 21
-132.15
  0
LINE
  5
154
100
AcDbEntity
  8
BLACK
  6
CONTINUOUS
 62
  256
370
   -1
100
AcDbLine
 10
127.994
 20
-132.15
 11
127.846
 21
-132.15
  0
LINE
  5
155
100
AcDbEntity
  8
BLACK
  6
CONTINUOUS
 62
  256
370
   -1
100
AcDbLine
 10
127.846
 20
-132.15
 11
127.625
 21
-132.111
  0
LINE
  5
156
100
AcDbEntity
  8
BLACK
  6
CONTINUOUS
 62
  256
370
   -1
100
AcDbLine
 10
127.625
 20
-132.111
 11
127.365
 21
-131.961
  0
LINE
  5
157
100
AcDbEntity
  8
BLACK
  6
CONTINUOUS
 62
  256
370
   -1
100
AcDbLine
 10
127.365
 20
-131.961
 11
127.173
 21
-131.732
  0
LINE
  5
158
100
AcDbEntity
  8
BLACK
  6
CONTINUOUS
 62
  256
370
   -1
100
AcDbLine
 10
127.173
 20
-131.732
 11
127.07
 21
-131.45
  0
LINE
  5
159
100
AcDbEntity
  8
BLACK
  6
CONTINUOUS
 62
  256
370
   -1
100
AcDbLine
 10
127.07
 20
-131.45
 11
127.07
 21
-131.15
  0
LINE
  5
15A
100
AcDbEntity
  8
BLACK
  6
CONTINUOUS
 62
  256
370
   -1
100
AcDbLine
 10
127.07
 20
-131.15
 11
127.173
 21
-130.868
  0
LINE
  5
15B
100
AcDbEntity
  8
BLACK
  6
CONTINUOUS
 62
  256
370
   -1
100
AcDbLine
 10
127.173
 20
-130.868
 11
127.22
 21
-130.812
  0
LINE
  5
15C
100
AcDbEntity
  8
BLACK
  6
CONTINUOUS
 62
  256
370
   -1
100
AcDbLine
 10
127.22
 20
-130.812
 11
126.158
 21
-129.75
  0
LINE
  5
15D
100
AcDbEntity
  8
BLACK
  6
CONTINUOUS
 62
  256
370
   -1
100
AcDbLine
 10
126.158
 20
-129.75
 11
123.807
 21
-129.75
  0
LINE
  5
15E
100
AcDbEntity
  8
BLACK
  6
CONTINUOUS
 62
  256
370
   -1
100
AcDbLine
 10
123.807
 20
-129.75
 11
123.787
 21
-129.752
  0
LINE
  5
15F
100
AcDbEntity
  8
BLACK
  6
CONTINUOUS
 62
  256
370
   -1
100
AcDbLine
 10
123.787
 20
-129.752
 11
123.768
 21
-129.747
  0
LINE
  5
160
100
AcDbEntity
  8
BLACK
  6
CONTINUOUS
 62
  256
370
   -1
100
AcDbLine
 10
123.768
 20
-129.747
 11
123.748
 21
-129.743
  0
LINE
  5
161
100
AcDbEntity
  8
BLACK
  6
CONTINUOUS
 62
  256
370
   -1
100
AcDbLine
 10
123.748
 20
-129.743
 11
123.742
 21
-129.74
  0
LINE
  5
162
100
AcDbEntity
  8
BLACK
  6
CONTINUOUS
 62
  256
370
   -1
100
AcDbLine
 10
123.742
 20
-129.74
 11
123.736
 21
-129.738
  0
LINE
  5
163
100
AcDbEntity
  8
BLACK
  6
CONTINUOUS
 62
  256
370
   -1
100
AcDbLine
 10
123.736
 20
-129.738
 11
123.719
 21
-129.727
  0
LINE
  5
164
100
AcDbEntity
  8
BLACK
  6
CONTINUOUS
 62
  256
370
   -1
100
AcDbLine
 10
123.719
 20
-129.727
 11
123.702
 21
-129.717
  0
LINE
  5
165
100
AcDbEntity
  8
BLACK
  6
CONTINUOUS
 62
  256
370
   -1
100
AcDbLine
 10
123.702
 20
-129.717
 11
123.689
 21
-129.701
  0
LINE
  5
166
100
AcDbEntity
  8
BLACK
  6
CONTINUOUS
 62
  256
370
   -1
100
AcDbLine
 10
123.689
 20
-129.701
 11
115.228
 21
-121.24
  0
LINE
  5
167
100
AcDbEntity
  8
BLACK
  6
CONTINUOUS
 62
  256
370
   -1
100
AcDbLine
 10
115.228
 20
-121.24
 11
115.213
 21
-121.227
  0
LINE
  5
168
100
AcDbEntity
  8
BLACK
  6
CONTINUOUS
 62
  256
370
   -1
100
AcDbLine
 10
115.213
 20
-121.227
 11
115.203
 21
-121.21
  0
LINE
  5
169
100
AcDbEntity
  8
BLACK
  6
CONTINUOUS
 62
  256
370
   -1
100
AcDbLine
 10
115.203
 20
-121.21
 11
115.191
 21
-121.194
  0
LINE
  5
16A
100
AcDbEntity
  8
BLACK
  6
CONTINUOUS
 62
  256
370
   -1
100
AcDbLine
 10
115.191
 20
-121.194
 11
115.19
 21
-121.187
  0
LINE
  5
16B
100
AcDbEntity
  8
BLACK
  6
CONTINUOUS
 62
  256
370
   -1
100
AcDbLine
 10
115.19
 20
-121.187
 11
115.186
 21
-121.182
  0
LINE
  5
16C
100
AcDbEntity
  8
BLACK
  6
CONTINUOUS
 62
  256
370
   -1
100
AcDbLine
 10
115.186
 20
-121.182
 11
115.183
 21
-121.162
  0
LINE
  5
16D
100
AcDbEntity
  8
BLACK
  6
CONTINUOUS
 62
  256
370
   -1
100
AcDbLine
 10
115.183
 20
-121.162
 11
115.178
 21
-121.143
  0
LINE
  5
16E
100
AcDbEntity
  8
BLACK
  6
CONTINUOUS
 62
  256
370
   -1
100
AcDbLine
 10
115.178
 20
-121.143
 11
115.179
 21
-121.123
  0
LINE
  5
16F
100
AcDbEntity
  8
BLACK
  6
CONTINUOUS
 62
  256
370
   -1
100
AcDbLine
 10
115.179
 20
-121.123
 11
115.179
 21
-116.292
  0
LINE
  5
170
100
AcDbEntity
  8
BLACK
  6
CONTINUOUS
 62
  256
370
   -1
100
AcDbLine
 10
115.179
 20
-116.292
 11
113.599
 21
-114.711
  0
LINE
  5
171
100
AcDbEntity
  8
BLACK
  6
CONTINUOUS
 62
  256
370
   -1
100
AcDbLine
 10
113.599
 20
-114.711
 11
113.583
 21
-114.698
  0
LINE
  5
172
100
AcDbEntity
  8
BLACK
  6
CONTINUOUS
 62
  256
370
   -1
100
AcDbLine
 10
113.583
 20
-114.698
 11
113.573
 21
-114.681
  0
LINE
  5
173
100
AcDbEntity
  8
BLACK
  6
CONTINUOUS
 62
  256
370
   -1
100
AcDbLine
 10
113.573
 20
-114.681
 11
113.562
 21
-114.664
  0
LINE
  5
174
100
AcDbEntity
  8
BLACK
  6
CONTINUOUS
 62
  256
370
   -1
100
AcDbLine
 10
113.562
 20
-114.664
 11
113.56
 21
-114.658
  0
LINE
  5
175
100
AcDbEntity
  8
BLACK
  6
CONTINUOUS
 62
  256
370
   -1
100
AcDbLine
 10
113.56
 20
-114.658
 11
113.557
 21
-114.652
  0
LINE
  5
176
100
AcDbEntity
  8
BLACK
  6
CONTINUOUS
 62
  256
370
   -1
100
AcDbLine
 10
113.557
 20
-114.652
 11
113.553
 21
-114.632
  0
LINE
  5
177
100
AcDbEntity
  8
BLACK
  6
CONTINUOUS
 62
  256
370
   -1
100
AcDbLine
 10
113.553
 20
-114.632
 11
113.548
 21
-114.613
  0
LINE
  5
178
100
AcDbEntity
  8
BLACK
  6
CONTINUOUS
 62
  256
370
   -1
100
AcDbLine
 10
113.548
 20
-114.613
 11
113.55
 21
-114.593
  0
LINE
  5
179
100
AcDbEntity
  8
BLACK
  6
CONTINUOUS
 62
  256
370
   -1
100
AcDbLine
 10
113.55
 20
-114.593
 11
113.55
 21
-109.462
  0
LINE
  5
17A
100
AcDbEntity
  8
BLACK
  6
CONTINUOUS
 62
  256
370
   -1
100
AcDbLine
 10
113.55
 20
-109.462
 11
110.938
 21
-106.85
  0
LINE
  5
17B
100
AcDbEntity
  8
BLACK
  6
CONTINUOUS
 62
  256
370
   -1
100
AcDbLine
 10
110.938
 20
-106.85
 11
106.807
 21
-106.85
  0
LINE
  5
17C
100
AcDbEntity
  8
BLACK
  6
CONTINUOUS
 62
  256
370
   -1
100
AcDbLine
 10
106.807
 20
-106.85
 11
106.787
 21
-106.852
  0
LINE
  5
17D
100
AcDbEntity
  8
BLACK
  6
CONTINUOUS
 62
  256
370
   -1
100
AcDbLine
 10
106.787
 20
-106.852
 11
106.768
 21
-106.847
  0
LINE
  5
17E
100
AcDbEntity
  8
BLACK
  6
CONTINUOUS
 62
  256
370
   -1
100
AcDbLine
 10
106.768
 20
-106.847
 11
106.748
 21
-106.843
  0
LINE
  5
17F
100
AcDbEntity
  8
BLACK
  6
CONTINUOUS
 62
  256
370
   -1
100
AcDbLine
 10
106.748
 20
-106.843
 11
106.742
 21
-106.84
  0
LINE
  5
180
100
AcDbEntity
  8
BLACK
  6
CONTINUOUS
 62
  256
370
   -1
100
AcDbLine
 10
106.742
 20
-106.84
 11
106.736
 21
-106.838
  0
LINE
  5
181
100
AcDbEntity
  8
BLACK
  6
CONTINUOUS
 62
  256
370
   -1
100
AcDbLine
 10
106.736
 20
-106.838
 11
106.719
 21
-106.827
  0
LINE
  5
182
100
AcDbEntity
  8
BLACK
  6
CONTINUOUS
 62
  256
370
   -1
100
AcDbLine
 10
106.719
 20
-106.827
 11
106.702
 21
-106.817
  0
LINE
  5
183
100
AcDbEntity
  8
BLACK
  6
CONTINUOUS
 62
  256
370
   -1
100
AcDbLine
 10
106.702
 20
-106.817
 11
106.689
 21
-106.801
  0
LINE
  5
184
100
AcDbEntity
  8
BLACK
  6
CONTINUOUS
 62
  256
370
   -1
100
AcDbLine
 10
106.689
 20
-106.801
 11
104.099
 21
-104.211
  0
LINE
  5
185
100
AcDbEntity
  8
BLACK
  6
CONTINUOUS
 62
  256
370
   -1
100
AcDbLine
 10
104.099
 20
-104.211
 11
104.083
 21
-104.198
  0
LINE
  5
186
100
AcDbEntity
  8
BLACK
  6
CONTINUOUS
 62
  256
370
   -1
100
AcDbLine
 10
104.083
 20
-104.198
 11
104.073
 21
-104.181
  0
LINE
  5
187
100
AcDbEntity
  8
BLACK
  6
CONTINUOUS
 62
  256
370
   -1
100
AcDbLine
 10
104.073
 20
-104.181
 11
104.062
 21
-104.164
  0
LINE
  5
188
100
AcDbEntity
  8
BLACK
  6
CONTINUOUS
 62
  256
370
   -1
100
AcDbLine
 10
104.062
 20
-104.164
 11
104.06
 21
-104.158
  0
LINE
  5
189
100
AcDbEntity
  8
BLACK
  6
CONTINUOUS
 62
  256
370
   -1
100
AcDbLine
 10
104.06
 20
-104.158
 11
104.057
 21
-104.152
  0
LINE
  5
18A
100
AcDbEntity
  8
BLACK
  6
CONTINUOUS
 62
  256
370
   -1
100
AcDbLine
 10
104.057
 20
-104.152
 11
104.053
 21
-104.132
  0
LINE
  5
18B
100
AcDbEntity
  8
BLACK
  6
CONTINUOUS
 62
  256
370
   -1
100
AcDbLine
 10
104.053
 20
-104.132
 11
104.048
 21
-104.113
  0
LINE
  5
18C
100
AcDbEntity
  8
BLACK
  6
CONTINUOUS
 62
  256
370
   -1
100
AcDbLine
 10
104.048
 20
-104.113
 11
104.05
 21
-104.093
  0
LINE
  5
18D
100
AcDbEntity
  8
BLACK
  6
CONTINUOUS
 62
  256
370
   -1
100
AcDbLine
 10
104.05
 20
-104.093
 11
104.05
 21
-97.8788
  0
LINE
  5
18E
100
AcDbEntity
  8
BLACK
  6
CONTINUOUS
 62
  256
370
   -1
100
AcDbLine
 10
104.05
 20
-97.8788
 11
104.05
 21
-97.8788
  0
LINE
  5
18F
100
AcDbEntity
  8
BLACK
  6
CONTINUOUS
 62
  256
370
   -1
100
AcDbLine
 10
104.05
 20
-97.8788
 11
104.05
 21
-97.67529999999999
  0
LINE
  5
190
100
AcDbEntity
  8
BLACK
  6
CONTINUOUS
 62
  256
370
   -1
100
AcDbLine
 10
104.05
 20
-97.67529999999999
 11
103.939
 21
-97.61109999999999
  0
LINE
  5
191
100
AcDbEntity
  8
BLACK
  6
CONTINUOUS
 62
  256
370
   -1
100
AcDbLine
 10
103.939
 20
-97.61109999999999
 11
103.848
 21
-97.5031
  0
LINE
  5
192
100
AcDbEntity
  8
BLACK
  6
CONTINUOUS
 62
  256
370
   -1
100
AcDbLine
 10
103.848
 20
-97.5031
 11
103.8
 21
-97.37050000000001
  0
LINE
  5
193
100
AcDbEntity
  8
BLACK
  6
CONTINUOUS
 62
  256
370
   -1
100
AcDbLine
 10
103.8
 20
-97.37050000000001
 11
103.8
 21
-97.2295
  0
LINE
  5
194
100
AcDbEntity
  8
BLACK
  6
CONTINUOUS
 62
  256
370
   -1
100
AcDbLine
 10
103.8
 20
-97.2295
 11
103.848
 21
-97.09690000000001
  0
LINE
  5
195
100
AcDbEntity
  8
BLACK
  6
CONTINUOUS
 62
  256
370
   -1
100
AcDbLine
 10
103.848
 20
-97.09690000000001
 11
103.939
 21
-96.9889
  0
LINE
  5
196
100
AcDbEntity
  8
BLACK
  6
CONTINUOUS
 62
  256
370
   -1
100
AcDbLine
 10
103.939
 20
-96.9889
 11
104.061
 21
-96.9183
  0
LINE
  5
197
100
AcDbEntity
  8
BLACK
  6
CONTINUOUS
 62
  256
370
   -1
100
AcDbLine
 10
104.061
 20
-96.9183
 11
104.2
 21
-96.8938
  0
LINE
  5
198
100
AcDbEntity
  8
BLACK
  6
CONTINUOUS
 62
  256
370
   -1
100
AcDbLine
 10
104.2
 20
-96.8938
 11
104.339
 21
-96.9183
  0
LINE
  5
199
100
AcDbEntity
  8
BLACK
  6
CONTINUOUS
 62
  256
370
   -1
100
AcDbLine
 10
104.339
 20
-96.9183
 11
104.461
 21
-96.9889
  0
LINE
  5
19A
100
AcDbEntity
  8
BLACK
  6
CONTINUOUS
 62
  256
370
   -1
100
AcDbLine
 10
104.461
 20
-96.9889
 11
104.552
 21
-97.09690000000001
  0
LINE
  5
19B
100
AcDbEntity
  8
BLACK
  6
CONTINUOUS
 62
  256
370
   -1
100
AcDbLine
 10
104.552
 20
-97.09690000000001
 11
104.6
 21
-97.2295
  0
LINE
  5
19C
100
AcDbEntity
  8
BLACK
  6
CONTINUOUS
 62
  256
370
   -1
100
AcDbLine
 10
104.6
 20
-97.2295
 11
104.6
 21
-97.37050000000001
  0
LINE
  5
19D
100
AcDbEntity
  8
BLACK
  6
CONTINUOUS
 62
  256
370
   -1
100
AcDbLine
 10
104.6
 20
-97.37050000000001
 11
104.552
 21
-97.5031
  0
LINE
  5
19E
100
AcDbEntity
  8
BLACK
  6
CONTINUOUS
 62
  256
370
   -1
100
AcDbLine
 10
104.552
 20
-97.5031
 11
104.461
 21
-97.61109999999999
  0
LINE
  5
19F
100
AcDbEntity
  8
BLACK
  6
CONTINUOUS
 62
  256
370
   -1
100
AcDbLine
 10
104.461
 20
-97.61109999999999
 11
104.35
 21
-97.67529999999999
  0
LINE
  5
1A0
100
AcDbEntity
  8
BLACK
  6
CONTINUOUS
 62
  256
370
   -1
100
AcDbLine
 10
104.35
 20
-97.67529999999999
 11
104.35
 21
-104.038
  0
LINE
  5
1A1
100
AcDbEntity
  8
BLACK
  6
CONTINUOUS
 62
  256
370
   -1
100
AcDbLine
 10
104.35
 20
-104.038
 11
106.862
 21
-106.55
  0
LINE
  5
1A2
100
AcDbEntity
  8
BLACK
  6
CONTINUOUS
 62
  256
370
   -1
100
AcDbLine
 10
125.675
 20
-130.489
 11
125.935
 21
-130.639
  0
LINE
  5
1A3
100
AcDbEntity
  8
BLACK
  6
CONTINUOUS
 62
  256
370
   -1
100
AcDbLine
 10
125.935
 20
-130.639
 11
126.127
 21
-130.868
  0
LINE
  5
1A4
100
AcDbEntity
  8
BLACK
  6
CONTINUOUS
 62
  256
370
   -1
100
AcDbLine
 10
126.127
 20
-130.868
 11
126.23
 21
-131.15
  0
LINE
  5
1A5
100
AcDbEntity
  8
BLACK
  6
CONTINUOUS
 62
  256
370
   -1
100
AcDbLine
 10
126.23
 20
-131.15
 11
126.23
 21
-131.45
  0
LINE
  5
1A6
100
AcDbEntity
  8
BLACK
  6
CONTINUOUS
 62
  256
370
   -1
100
AcDbLine
 10
126.23
 20
-131.45
 11
126.127
 21
-131.732
  0
LINE
  5
1A7
100
AcDbEntity
  8
BLACK
  6
CONTINUOUS
 62
  256
370
   -1
100
AcDbLine
 10
126.127
 20
-131.732
 11
125.935
 21
-131.961
  0
LINE
  5
1A8
100
AcDbEntity
  8
BLACK
  6
CONTINUOUS
 62
  256
370
   -1
100
AcDbLine
 10
125.935
 20
-131.961
 11
125.675
 21
-132.111
  0
LINE
  5
1A9
100
AcDbEntity
  8
BLACK
  6
CONTINUOUS
 62
  256
370
   -1
100
AcDbLine
 10
125.675
 20
-132.111
 11
125.454
 21
-132.15
  0
LINE
  5
1AA
100
AcDbEntity
  8
BLACK
  6
CONTINUOUS
 62
  256
370
   -1
100
AcDbLine
 10
125.454
 20
-132.15
 11
125.306
 21
-132.15
  0
LINE
  5
1AB
100
AcDbEntity
  8
BLACK
  6
CONTINUOUS
 62
  256
370
   -1
100
AcDbLine
 10
125.306
 20
-132.15
 11
125.085
 21
-132.111
  0
LINE
  5
1AC
100
AcDbEntity
  8
BLACK
  6
CONTINUOUS
 62
  256
370
   -1
100
AcDbLine
 10
125.085
 20
-132.111
 11
124.825
 21
-131.961
  0
LINE
  5
1AD
100
AcDbEntity
  8
BLACK
  6
CONTINUOUS
 62
  256
370
   -1
100
AcDbLine
 10
124.825
 20
-131.961
 11
124.633
 21
-131.732
  0
LINE
  5
1AE
100
AcDbEntity
  8
BLACK
  6
CONTINUOUS
 62
  256
370
   -1
100
AcDbLine
 10
124.633
 20
-131.732
 11
124.53
 21
-131.45
  0
LINE
  5
1AF
100
AcDbEntity
  8
BLACK
  6
CONTINUOUS
 62
  256
370
   -1
100
AcDbLine
 10
124.53
 20
-131.45
 11
124.53
 21
-131.15
  0
LINE
  5
1B0
100
AcDbEntity
  8
BLACK
  6
CONTINUOUS
 62
  256
370
   -1
100
AcDbLine
 10
124.53
 20
-131.15
 11
124.633
 21
-130.868
  0
LINE
  5
1B1
100
AcDbEntity
  8
BLACK
  6
CONTINUOUS
 62
  256
370
   -1
100
AcDbLine
 10
124.633
 20
-130.868
 11
124.825
 21
-130.639
  0
LINE
  5
1B2
100
AcDbEntity
  8
BLACK
  6
CONTINUOUS
 62
  256
370
   -1
100
AcDbLine
 10
124.825
 20
-130.639
 11
125.085
 21
-130.489
  0
LINE
  5
1B3
100
AcDbEntity
  8
BLACK
  6
CONTINUOUS
 62
  256
370
   -1
100
AcDbLine
 10
125.085
 20
-130.489
 11
125.306
 21
-130.45
  0
LINE
  5
1B4
100
AcDbEntity
  8
BLACK
  6
CONTINUOUS
 62
  256
370
   -1
100
AcDbLine
 10
125.306
 20
-130.45
 11
125.454
 21
-130.45
  0
LINE
  5
1B5
100
AcDbEntity
  8
BLACK
  6
CONTINUOUS
 62
  256
370
   -1
100
AcDbLine
 10
125.454
 20
-130.45
 11
125.675
 21
-130.489
  0
LINE
  5
1B6
100
AcDbEntity
  8
BLACK
  6
CONTINUOUS
 62
  256
370
   -1
100
AcDbLine
 10
123.135
 20
-130.489
 11
123.395
 21
-130.639
  0
LINE
  5
1B7
100
AcDbEntity
  8
BLACK
  6
CONTINUOUS
 62
  256
370
   -1
100
AcDbLine
 10
123.395
 20
-130.639
 11
123.587
 21
-130.868
  0
LINE
  5
1B8
100
AcDbEntity
  8
BLACK
  6
CONTINUOUS
 62
  256
370
   -1
100
AcDbLine
 10
123.587
 20
-130.868
 11
123.69
 21
-131.15
  0
LINE
  5
1B9
100
AcDbEntity
  8
BLACK
  6
CONTINUOUS
 62
  256
370
   -1
100
AcDbLine
 10
123.69
 20
-131.15
 11
123.69
 21
-131.45
  0
LINE
  5
1BA
100
AcDbEntity
  8
BLACK
  6
CONTINUOUS
 62
  256
370
   -1
100
AcDbLine
 10
123.69
 20
-131.45
 11
123.587
 21
-131.732
  0
LINE
  5
1BB
100
AcDbEntity
  8
BLACK
  6
CONTINUOUS
 62
  256
370
   -1
100
AcDbLine
 10
123.587
 20
-131.732
 11
123.395
 21
-131.961
  0
LINE
  5
1BC
100
AcDbEntity
  8
BLACK
  6
CONTINUOUS
 62
  256
370
   -1
100
AcDbLine
 10
123.395
 20
-131.961
 11
123.135
 21
-132.111
  0
LINE
  5
1BD
100
AcDbEntity
  8
BLACK
  6
CONTINUOUS
 62
  256
370
   -1
100
AcDbLine
 10
123.135
 20
-132.111
 11
122.914
 21
-132.15
  0
LINE
  5
1BE
100
AcDbEntity
  8
BLACK
  6
CONTINUOUS
 62
  256
370
   -1
100
AcDbLine
 10
122.914
 20
-132.15
 11
122.766
 21
-132.15
  0
LINE
  5
1BF
100
AcDbEntity
  8
BLACK
  6
CONTINUOUS
 62
  256
370
   -1
100
AcDbLine
 10
122.766
 20
-132.15
 11
122.545
 21
-132.111
  0
LINE
  5
1C0
100
AcDbEntity
  8
BLACK
  6
CONTINUOUS
 62
  256
370
   -1
100
AcDbLine
 10
122.545
 20
-132.111
 11
122.285
 21
-131.961
  0
LINE
  5
1C1
100
AcDbEntity
  8
BLACK
  6
CONTINUOUS
 62
  256
370
   -1
100
AcDbLine
 10
122.285
 20
-131.961
 11
122.093
 21
-131.732
  0
LINE
  5
1C2
100
AcDbEntity
  8
BLACK
  6
CONTINUOUS
 62
  256
370
   -1
100
AcDbLine
 10
122.093
 20
-131.732
 11
121.99
 21
-131.45
  0
LINE
  5
1C3
100
AcDbEntity
  8
BLACK
  6
CONTINUOUS
 62
  256
370
   -1
100
AcDbLine
 10
121.99
 20
-131.45
 11
121.99
 21
-131.15
  0
LINE
  5
1C4
100
AcDbEntity
  8
BLACK
  6
CONTINUOUS
 62
  256
370
   -1
100
AcDbLine
 10
121.99
 20
-131.15
 11
122.093
 21
-130.868
  0
LINE
  5
1C5
100
AcDbEntity
  8
BLACK
  6
CONTINUOUS
 62
  256
370
   -1
100
AcDbLine
 10
122.093
 20
-130.868
 11
122.285
 21
-130.639
  0
LINE
  5
1C6
100
AcDbEntity
  8
BLACK
  6
CONTINUOUS
 62
  256
370
   -1
100
AcDbLine
 10
122.285
 20
-130.639
 11
122.545
 21
-130.489
  0
LINE
  5
1C7
100
AcDbEntity
  8
BLACK
  6
CONTINUOUS
 62
  256
370
   -1
100
AcDbLine
 10
122.545
 20
-130.489
 11
122.766
 21
-130.45
  0
LINE
  5
1C8
100
AcDbEntity
  8
BLACK
  6
CONTINUOUS
 62
  256
370
   -1
100
AcDbLine
 10
122.766
 20
-130.45
 11
122.914
 21
-130.45
  0
LINE
  5
1C9
100
AcDbEntity
  8
BLACK
  6
CONTINUOUS
 62
  256
370
   -1
100
AcDbLine
 10
122.914
 20
-130.45
 11
123.135
 21
-130.489
  0
LINE
  5
1CA
100
AcDbEntity
  8
BLACK
  6
CONTINUOUS
 62
  256
370
   -1
100
AcDbLine
 10
121.15
 20
-132.15
 11
119.45
 21
-132.15
  0
LINE
  5
1CB
100
AcDbEntity
  8
BLACK
  6
CONTINUOUS
 62
  256
370
   -1
100
AcDbLine
 10
119.45
 20
-132.15
 11
119.45
 21
-130.45
  0
LINE
  5
1CC
100
AcDbEntity
  8
BLACK
  6
CONTINUOUS
 62
  256
370
   -1
100
AcDbLine
 10
119.45
 20
-130.45
 11
121.15
 21
-130.45
  0
LINE
  5
1CD
100
AcDbEntity
  8
BLACK
  6
CONTINUOUS
 62
  256
370
   -1
100
AcDbLine
 10
121.15
 20
-130.45
 11
121.15
 21
-132.15
  0
LINE
  5
1CE
100
AcDbEntity
  8
BLACK
  6
CONTINUOUS
 62
  256
370
   -1
100
AcDbLine
 10
147.495
 20
-127.392
 11
148.105
 21
-127.744
  0
LINE
  5
1CF
100
AcDbEntity
  8
BLACK
  6
CONTINUOUS
 62
  256
370
   -1
100
AcDbLine
 10
148.105
 20
-127.744
 11
148.559
 21
-128.285
  0
LINE
  5
1D0
100
AcDbEntity
  8
BLACK
  6
CONTINUOUS
 62
  256
370
   -1
100
AcDbLine
 10
148.559
 20
-128.285
 11
148.8
 21
-128.947
  0
LINE
  5
1D1
100
AcDbEntity
  8
BLACK
  6
CONTINUOUS
 62
  256
370
   -1
100
AcDbLine
 10
148.8
 20
-128.947
 11
148.8
 21
-129.653
  0
LINE
  5
1D2
100
AcDbEntity
  8
BLACK
  6
CONTINUOUS
 62
  256
370
   -1
100
AcDbLine
 10
148.8
 20
-129.653
 11
148.559
 21
-130.315
  0
LINE
  5
1D3
100
AcDbEntity
  8
BLACK
  6
CONTINUOUS
 62
  256
370
   -1
100
AcDbLine
 10
148.559
 20
-130.315
 11
148.105
 21
-130.856
  0
LINE
  5
1D4
100
AcDbEntity
  8
BLACK
  6
CONTINUOUS
 62
  256
370
   -1
100
AcDbLine
 10
148.105
 20
-130.856
 11
147.495
 21
-131.208
  0
LINE
  5
1D5
100
AcDbEntity
  8
BLACK
  6
CONTINUOUS
 62
  256
370
   -1
100
AcDbLine
 10
147.495
 20
-131.208
 11
146.8
 21
-131.331
  0
LINE
  5
1D6
100
AcDbEntity
  8
BLACK
  6
CONTINUOUS
 62
  256
370
   -1
100
AcDbLine
 10
146.8
 20
-131.331
 11
146.105
 21
-131.208
  0
LINE
  5
1D7
100
AcDbEntity
  8
BLACK
  6
CONTINUOUS
 62
  256
370
   -1
100
AcDbLine
 10
146.105
 20
-131.208
 11
145.495
 21
-130.856
  0
LINE
  5
1D8
100
AcDbEntity
  8
BLACK
  6
CONTINUOUS
 62
  256
370
   -1
100
AcDbLine
 10
145.495
 20
-130.856
 11
145.041
 21
-130.315
  0
LINE
  5
1D9
100
AcDbEntity
  8
BLACK
  6
CONTINUOUS
 62
  256
370
   -1
100
AcDbLine
 10
145.041
 20
-130.315
 11
144.8
 21
-129.653
  0
LINE
  5
1DA
100
AcDbEntity
  8
BLACK
  6
CONTINUOUS
 62
  256
370
   -1
100
AcDbLine
 10
144.8
 20
-129.653
 11
144.8
 21
-128.947
  0
LINE
  5
1DB
100
AcDbEntity
  8
BLACK
  6
CONTINUOUS
 62
  256
370
   -1
100
AcDbLine
 10
144.8
 20
-128.947
 11
145.041
 21
-128.285
  0
LINE
  5
1DC
100
AcDbEntity
  8
BLACK
  6
CONTINUOUS
 62
  256
370
   -1
100
AcDbLine
 10
145.041
 20
-128.285
 11
145.495
 21
-127.744
  0
LINE
  5
1DD
100
AcDbEntity
  8
BLACK
  6
CONTINUOUS
 62
  256
370
   -1
100
AcDbLine
 10
145.495
 20
-127.744
 11
146.105
 21
-127.392
  0
LINE
  5
1DE
100
AcDbEntity
  8
BLACK
  6
CONTINUOUS
 62
  256
370
   -1
100
AcDbLine
 10
146.105
 20
-127.392
 11
146.8
 21
-127.269
  0
LINE
  5
1DF
100
AcDbEntity
  8
BLACK
  6
CONTINUOUS
 62
  256
370
   -1
100
AcDbLine
 10
146.8
 20
-127.269
 11
147.495
 21
-127.392
  0
LINE
  5
1E0
100
AcDbEntity
  8
BLACK
  6
CONTINUOUS
 62
  256
370
   -1
100
AcDbLine
 10
112.295
 20
-127.392
 11
112.905
 21
-127.744
  0
LINE
  5
1E1
100
AcDbEntity
  8
BLACK
  6
CONTINUOUS
 62
  256
370
   -1
100
AcDbLine
 10
112.905
 20
-127.744
 11
113.359
 21
-128.285
  0
LINE
  5
1E2
100
AcDbEntity
  8
BLACK
  6
CONTINUOUS
 62
  256
370
   -1
100
AcDbLine
 10
113.359
 20
-128.285
 11
113.6
 21
-128.947
  0
LINE
  5
1E3
100
AcDbEntity
  8
BLACK
  6
CONTINUOUS
 62
  256
370
   -1
100
AcDbLine
 10
113.6
 20
-128.947
 11
113.6
 21
-129.653
  0
LINE
  5
1E4
100
AcDbEntity
  8
BLACK
  6
CONTINUOUS
 62
  256
370
   -1
100
AcDbLine
 10
113.6
 20
-129.653
 11
113.359
 21
-130.315
  0
LINE
  5
1E5
100
AcDbEntity
  8
BLACK
  6
CONTINUOUS
 62
  256
370
   -1
100
AcDbLine
 10
113.359
 20
-130.315
 11
112.905
 21
-130.856
  0
LINE
  5
1E6
100
AcDbEntity
  8
BLACK
  6
CONTINUOUS
 62
  256
370
   -1
100
AcDbLine
 10
112.905
 20
-130.856
 11
112.295
 21
-131.208
  0
LINE
  5
1E7
100
AcDbEntity
  8
BLACK
  6
CONTINUOUS
 62
  256
370
   -1
100
AcDbLine
 10
112.295
 20
-131.208
 11
111.6
 21
-131.331
  0
LINE
  5
1E8
100
AcDbEntity
  8
BLACK
  6
CONTINUOUS
 62
  256
370
   -1
100
AcDbLine
 10
111.6
 20
-131.331
 11
110.905
 21
-131.208
  0
LINE
  5
1E9
100
AcDbEntity
  8
BLACK
  6
CONTINUOUS
 62
  256
370
   -1
100
AcDbLine
 10
110.905
 20
-131.208
 11
110.295
 21
-130.856
  0
LINE
  5
1EA
100
AcDbEntity
  8
BLACK
  6
CONTINUOUS
 62
  256
370
   -1
100
AcDbLine
 10
110.295
 20
-130.856
 11
109.841
 21
-130.315
  0
LINE
  5
1EB
100
AcDbEntity
  8
BLACK
  6
CONTINUOUS
 62
  256
370
   -1
100
AcDbLine
 10
109.841
 20
-130.315
 11
109.6
 21
-129.653
  0
LINE
  5
1EC
100
AcDbEntity
  8
BLACK
  6
CONTINUOUS
 62
  256
370
   -1
100
AcDbLine
 10
109.6
 20
-129.653
 11
109.6
 21
-128.947
  0
LINE
  5
1ED
100
AcDbEntity
  8
BLACK
  6
CONTINUOUS
 62
  256
370
   -1
100
AcDbLine
 10
109.6
 20
-128.947
 11
109.841
 21
-128.285
  0
LINE
  5
1EE
100
AcDbEntity
  8
BLACK
  6
CONTINUOUS
 62
  256
370
   -1
100
AcDbLine
 10
109.841
 20
-128.285
 11
110.295
 21
-127.744
  0
LINE
  5
1EF
100
AcDbEntity
  8
BLACK
  6
CONTINUOUS
 62
  256
370
   -1
100
AcDbLine
 10
110.295
 20
-127.744
 11
110.905
 21
-127.392
  0
LINE
  5
1F0
100
AcDbEntity
  8
BLACK
  6
CONTINUOUS
 62
  256
370
   -1
100
AcDbLine
 10
110.905
 20
-127.392
 11
111.6
 21
-127.269
  0
LINE
  5
1F1
100
AcDbEntity
  8
BLACK
  6
CONTINUOUS
 62
  256
370
   -1
100
AcDbLine
 10
111.6
 20
-127.269
 11
112.295
 21
-127.392
  0
LINE
  5
1F2
100
AcDbEntity
  8
BLACK
  6
CONTINUOUS
 62
  256
370
   -1
100
AcDbLine
 10
154.939
 20
-129.318
 11
155.061
 21
-129.389
  0
LINE
  5
1F3
100
AcDbEntity
  8
BLACK
  6
CONTINUOUS
 62
  256
370
   -1
100
AcDbLine
 10
155.061
 20
-129.389
 11
155.152
 21
-129.497
  0
LINE
  5
1F4
100
AcDbEntity
  8
BLACK
  6
CONTINUOUS
 62
  256
370
   -1
100
AcDbLine
 10
155.152
 20
-129.497
 11
155.2
 21
-129.629
  0
LINE
  5
1F5
100
AcDbEntity
  8
BLACK
  6
CONTINUOUS
 62
  256
370
   -1
100
AcDbLine
 10
155.2
 20
-129.629
 11
155.2
 21
-129.771
  0
LINE
  5
1F6
100
AcDbEntity
  8
BLACK
  6
CONTINUOUS
 62
  256
370
   -1
100
AcDbLine
 10
155.2
 20
-129.771
 11
155.152
 21
-129.903
  0
LINE
  5
1F7
100
AcDbEntity
  8
BLACK
  6
CONTINUOUS
 62
  256
370
   -1
100
AcDbLine
 10
155.152
 20
-129.903
 11
155.061
 21
-130.011
  0
LINE
  5
1F8
100
AcDbEntity
  8
BLACK
  6
CONTINUOUS
 62
  256
370
   -1
100
AcDbLine
 10
155.061
 20
-130.011
 11
154.939
 21
-130.082
  0
LINE
  5
1F9
100
AcDbEntity
  8
BLACK
  6
CONTINUOUS
 62
  256
370
   -1
100
AcDbLine
 10
154.939
 20
-130.082
 11
154.8
 21
-130.106
  0
LINE
  5
1FA
100
AcDbEntity
  8
BLACK
  6
CONTINUOUS
 62
  256
370
   -1
100
AcDbLine
 10
154.8
 20
-130.106
 11
154.661
 21
-130.082
  0
LINE
  5
1FB
100
AcDbEntity
  8
BLACK
  6
CONTINUOUS
 62
  256
370
   -1
100
AcDbLine
 10
154.661
 20
-130.082
 11
154.539
 21
-130.011
  0
LINE
  5
1FC
100
AcDbEntity
  8
BLACK
  6
CONTINUOUS
 62
  256
370
   -1
100
AcDbLine
 10
154.539
 20
-130.011
 11
154.448
 21
-129.903
  0
LINE
  5
1FD
100
AcDbEntity
  8
BLACK
  6
CONTINUOUS
 62
  256
370
   -1
100
AcDbLine
 10
154.448
 20
-129.903
 11
154.4
 21
-129.771
  0
LINE
  5
1FE
100
AcDbEntity
  8
BLACK
  6
CONTINUOUS
 62
  256
370
   -1
100
AcDbLine
 10
154.4
 20
-129.771
 11
154.4
 21
-129.629
  0
LINE
  5
1FF
100
AcDbEntity
  8
BLACK
  6
CONTINUOUS
 62
  256
370
   -1
100
AcDbLine
 10
154.4
 20
-129.629
 11
154.448
 21
-129.497
  0
LINE
  5
200
100
AcDbEntity
  8
BLACK
  6
CONTINUOUS
 62
  256
370
   -1
100
AcDbLine
 10
154.448
 20
-129.497
 11
154.539
 21
-129.389
  0
LINE
  5
201
100
AcDbEntity
  8
BLACK
  6
CONTINUOUS
 62
  256
370
   -1
100
AcDbLine
 10
154.539
 20
-129.389
 11
154.661
 21
-129.318
  0
LINE
  5
202
100
AcDbEntity
  8
BLACK
  6
CONTINUOUS
 62
  256
370
   -1
100
AcDbLine
 10
154.661
 20
-129.318
 11
154.8
 21
-129.294
  0
LINE
  5
203
100
AcDbEntity
  8
BLACK
  6
CONTINUOUS
 62
  256
370
   -1
100
AcDbLine
 10
154.8
 20
-129.294
 11
154.939
 21
-129.318
  0
LINE
  5
204
100
AcDbEntity
  8
BLACK
  6
CONTINUOUS
 62
  256
370
   -1
100
AcDbLine
 10
102.339
 20
-98.1683
 11
102.461
 21
-98.2388
  0
LINE
  5
205
100
AcDbEntity
  8
BLACK
  6
CONTINUOUS
 62
  256
370
   -1
100
AcDbLine
 10
102.461
 20
-98.2388
 11
102.552
 21
-98.34690000000001
  0
LINE
  5
206
100
AcDbEntity
  8
BLACK
  6
CONTINUOUS
 62
  256
370
   -1
100
AcDbLine
 10
102.552
 20
-98.34690000000001
 11
102.6
 21
-98.4795
  0
LINE
  5
207
100
AcDbEntity
  8
BLACK
  6
CONTINUOUS
 62
  256
370
   -1
100
AcDbLine
 10
102.6
 20
-98.4795
 11
102.6
 21
-98.62050000000001
  0
LINE
  5
208
100
AcDbEntity
  8
BLACK
  6
CONTINUOUS
 62
  256
370
   -1
100
AcDbLine
 10
102.6
 20
-98.62050000000001
 11
102.569
 21
-98.70650000000001
  0
LINE
  5
209
100
AcDbEntity
  8
BLACK
  6
CONTINUOUS
 62
  256
370
   -1
100
AcDbLine
 10
102.569
 20
-98.70650000000001
 11
102.715
 21
-98.8532
  0
LINE
  5
20A
100
AcDbEntity
  8
BLACK
  6
CONTINUOUS
 62
  256
370
   -1
100
AcDbLine
 10
102.715
 20
-98.8532
 11
102.715
 21
-98.8532
  0
LINE
  5
20B
100
AcDbEntity
  8
BLACK
  6
CONTINUOUS
 62
  256
370
   -1
100
AcDbLine
 10
102.715
 20
-98.8532
 11
103.101
 21
-99.2393
  0
LINE
  5
20C
100
AcDbEntity
  8
BLACK
  6
CONTINUOUS
 62
  256
370
   -1
100
AcDbLine
 10
103.101
 20
-99.2393
 11
103.117
 21
-99.2521
  0
LINE
  5
20D
100
AcDbEntity
  8
BLACK
  6
CONTINUOUS
 62
  256
370
   -1
100
AcDbLine
 10
103.117
 20
-99.2521
 11
103.127
 21
-99.2693
  0
LINE
  5
20E
100
AcDbEntity
  8
BLACK
  6
CONTINUOUS
 62
  256
370
   -1
100
AcDbLine
 10
103.127
 20
-99.2693
 11
103.138
 21
-99.2856
  0
LINE
  5
20F
100
AcDbEntity
  8
BLACK
  6
CONTINUOUS
 62
  256
370
   -1
100
AcDbLine
 10
103.138
 20
-99.2856
 11
103.14
 21
-99.2921
  0
LINE
  5
210
100
AcDbEntity
  8
BLACK
  6
CONTINUOUS
 62
  256
370
   -1
100
AcDbLine
 10
103.14
 20
-99.2921
 11
103.143
 21
-99.2979
  0
LINE
  5
211
100
AcDbEntity
  8
BLACK
  6
CONTINUOUS
 62
  256
370
   -1
100
AcDbLine
 10
103.143
 20
-99.2979
 11
103.147
 21
-99.3175
  0
LINE
  5
212
100
AcDbEntity
  8
BLACK
  6
CONTINUOUS
 62
  256
370
   -1
100
AcDbLine
 10
103.147
 20
-99.3175
 11
103.152
 21
-99.33669999999999
  0
LINE
  5
213
100
AcDbEntity
  8
BLACK
  6
CONTINUOUS
 62
  256
370
   -1
100
AcDbLine
 10
103.152
 20
-99.33669999999999
 11
103.15
 21
-99.3565
  0
LINE
  5
214
100
AcDbEntity
  8
BLACK
  6
CONTINUOUS
 62
  256
370
   -1
100
AcDbLine
 10
103.15
 20
-99.3565
 11
103.15
 21
-111.388
  0
LINE
  5
215
100
AcDbEntity
  8
BLACK
  6
CONTINUOUS
 62
  256
370
   -1
100
AcDbLine
 10
103.15
 20
-111.388
 11
103.152
 21
-111.408
  0
LINE
  5
216
100
AcDbEntity
  8
BLACK
  6
CONTINUOUS
 62
  256
370
   -1
100
AcDbLine
 10
103.152
 20
-111.408
 11
103.147
 21
-111.427
  0
LINE
  5
217
100
AcDbEntity
  8
BLACK
  6
CONTINUOUS
 62
  256
370
   -1
100
AcDbLine
 10
103.147
 20
-111.427
 11
103.143
 21
-111.447
  0
LINE
  5
218
100
AcDbEntity
  8
BLACK
  6
CONTINUOUS
 62
  256
370
   -1
100
AcDbLine
 10
103.143
 20
-111.447
 11
103.14
 21
-111.453
  0
LINE
  5
219
100
AcDbEntity
  8
BLACK
  6
CONTINUOUS
 62
  256
370
   -1
100
AcDbLine
 10
103.14
 20
-111.453
 11
103.138
 21
-111.459
  0
LINE
  5
21A
100
AcDbEntity
  8
BLACK
  6
CONTINUOUS
 62
  256
370
   -1
100
AcDbLine
 10
103.138
 20
-111.459
 11
103.127
 21
-111.475
  0
LINE
  5
21B
100
AcDbEntity
  8
BLACK
  6
CONTINUOUS
 62
  256
370
   -1
100
AcDbLine
 10
103.127
 20
-111.475
 11
103.117
 21
-111.493
  0
LINE
  5
21C
100
AcDbEntity
  8
BLACK
  6
CONTINUOUS
 62
  256
370
   -1
100
AcDbLine
 10
103.117
 20
-111.493
 11
103.101
 21
-111.505
  0
LINE
  5
21D
100
AcDbEntity
  8
BLACK
  6
CONTINUOUS
 62
  256
370
   -1
100
AcDbLine
 10
103.101
 20
-111.505
 11
102.65
 21
-111.957
  0
LINE
  5
21E
100
AcDbEntity
  8
BLACK
  6
CONTINUOUS
 62
  256
370
   -1
100
AcDbLine
 10
102.65
 20
-111.957
 11
102.65
 21
-118.538
  0
LINE
  5
21F
100
AcDbEntity
  8
BLACK
  6
CONTINUOUS
 62
  256
370
   -1
100
AcDbLine
 10
102.65
 20
-118.538
 11
109.342
 21
-125.23
  0
LINE
  5
220
100
AcDbEntity
  8
BLACK
  6
CONTINUOUS
 62
  256
370
   -1
100
AcDbLine
 10
109.342
 20
-125.23
 11
109.361
 21
-125.218
  0
LINE
  5
221
100
AcDbEntity
  8
BLACK
  6
CONTINUOUS
 62
  256
370
   -1
100
AcDbLine
 10
109.361
 20
-125.218
 11
109.5
 21
-125.194
  0
LINE
  5
222
100
AcDbEntity
  8
BLACK
  6
CONTINUOUS
 62
  256
370
   -1
100
AcDbLine
 10
109.5
 20
-125.194
 11
109.639
 21
-125.218
  0
LINE
  5
223
100
AcDbEntity
  8
BLACK
  6
CONTINUOUS
 62
  256
370
   -1
100
AcDbLine
 10
109.639
 20
-125.218
 11
109.761
 21
-125.289
  0
LINE
  5
224
100
AcDbEntity
  8
BLACK
  6
CONTINUOUS
 62
  256
370
   -1
100
AcDbLine
 10
109.761
 20
-125.289
 11
109.852
 21
-125.397
  0
LINE
  5
225
100
AcDbEntity
  8
BLACK
  6
CONTINUOUS
 62
  256
370
   -1
100
AcDbLine
 10
109.852
 20
-125.397
 11
109.9
 21
-125.529
  0
LINE
  5
226
100
AcDbEntity
  8
BLACK
  6
CONTINUOUS
 62
  256
370
   -1
100
AcDbLine
 10
109.9
 20
-125.529
 11
109.9
 21
-125.671
  0
LINE
  5
227
100
AcDbEntity
  8
BLACK
  6
CONTINUOUS
 62
  256
370
   -1
100
AcDbLine
 10
109.9
 20
-125.671
 11
109.852
 21
-125.803
  0
LINE
  5
228
100
AcDbEntity
  8
BLACK
  6
CONTINUOUS
 62
  256
370
   -1
100
AcDbLine
 10
109.852
 20
-125.803
 11
109.761
 21
-125.911
  0
LINE
  5
229
100
AcDbEntity
  8
BLACK
  6
CONTINUOUS
 62
  256
370
   -1
100
AcDbLine
 10
109.761
 20
-125.911
 11
109.639
 21
-125.982
  0
LINE
  5
22A
100
AcDbEntity
  8
BLACK
  6
CONTINUOUS
 62
  256
370
   -1
100
AcDbLine
 10
109.639
 20
-125.982
 11
109.5
 21
-126.006
  0
LINE
  5
22B
100
AcDbEntity
  8
BLACK
  6
CONTINUOUS
 62
  256
370
   -1
100
AcDbLine
 10
109.5
 20
-126.006
 11
109.361
 21
-125.982
  0
LINE
  5
22C
100
AcDbEntity
  8
BLACK
  6
CONTINUOUS
 62
  256
370
   -1
100
AcDbLine
 10
109.361
 20
-125.982
 11
109.239
 21
-125.911
  0
LINE
  5
22D
100
AcDbEntity
  8
BLACK
  6
CONTINUOUS
 62
  256
370
   -1
100
AcDbLine
 10
109.239
 20
-125.911
 11
109.148
 21
-125.803
  0
LINE
  5
22E
100
AcDbEntity
  8
BLACK
  6
CONTINUOUS
 62
  256
370
   -1
100
AcDbLine
 10
109.148
 20
-125.803
 11
109.1
 21
-125.671
  0
LINE
  5
22F
100
AcDbEntity
  8
BLACK
  6
CONTINUOUS
 62
  256
370
   -1
100
AcDbLine
 10
109.1
 20
-125.671
 11
109.1
 21
-125.529
  0
LINE
  5
230
100
AcDbEntity
  8
BLACK
  6
CONTINUOUS
 62
  256
370
   -1
100
AcDbLine
 10
109.1
 20
-125.529
 11
109.131
 21
-125.443
  0
LINE
  5
231
100
AcDbEntity
  8
BLACK
  6
CONTINUOUS
 62
  256
370
   -1
100
AcDbLine
 10
109.131
 20
-125.443
 11
102.399
 21
-118.711
  0
LINE
  5
232
100
AcDbEntity
  8
BLACK
  6
CONTINUOUS
 62
  256
370
   -1
100
AcDbLine
 10
102.399
 20
-118.711
 11
102.383
 21
-118.698
  0
LINE
  5
233
100
AcDbEntity
  8
BLACK
  6
CONTINUOUS
 62
  256
370
   -1
100
AcDbLine
 10
102.383
 20
-118.698
 11
102.373
 21
-118.681
  0
LINE
  5
234
100
AcDbEntity
  8
BLACK
  6
CONTINUOUS
 62
  256
370
   -1
100
AcDbLine
 10
102.373
 20
-118.681
 11
102.362
 21
-118.664
  0
LINE
  5
235
100
AcDbEntity
  8
BLACK
  6
CONTINUOUS
 62
  256
370
   -1
100
AcDbLine
 10
102.362
 20
-118.664
 11
102.36
 21
-118.658
  0
LINE
  5
236
100
AcDbEntity
  8
BLACK
  6
CONTINUOUS
 62
  256
370
   -1
100
AcDbLine
 10
102.36
 20
-118.658
 11
102.357
 21
-118.652
  0
LINE
  5
237
100
AcDbEntity
  8
BLACK
  6
CONTINUOUS
 62
  256
370
   -1
100
AcDbLine
 10
102.357
 20
-118.652
 11
102.353
 21
-118.633
  0
LINE
  5
238
100
AcDbEntity
  8
BLACK
  6
CONTINUOUS
 62
  256
370
   -1
100
AcDbLine
 10
102.353
 20
-118.633
 11
102.348
 21
-118.613
  0
LINE
  5
239
100
AcDbEntity
  8
BLACK
  6
CONTINUOUS
 62
  256
370
   -1
100
AcDbLine
 10
102.348
 20
-118.613
 11
102.35
 21
-118.593
  0
LINE
  5
23A
100
AcDbEntity
  8
BLACK
  6
CONTINUOUS
 62
  256
370
   -1
100
AcDbLine
 10
102.35
 20
-118.593
 11
102.35
 21
-111.901
  0
LINE
  5
23B
100
AcDbEntity
  8
BLACK
  6
CONTINUOUS
 62
  256
370
   -1
100
AcDbLine
 10
102.35
 20
-111.901
 11
102.348
 21
-111.881
  0
LINE
  5
23C
100
AcDbEntity
  8
BLACK
  6
CONTINUOUS
 62
  256
370
   -1
100
AcDbLine
 10
102.348
 20
-111.881
 11
102.353
 21
-111.862
  0
LINE
  5
23D
100
AcDbEntity
  8
BLACK
  6
CONTINUOUS
 62
  256
370
   -1
100
AcDbLine
 10
102.353
 20
-111.862
 11
102.357
 21
-111.843
  0
LINE
  5
23E
100
AcDbEntity
  8
BLACK
  6
CONTINUOUS
 62
  256
370
   -1
100
AcDbLine
 10
102.357
 20
-111.843
 11
102.36
 21
-111.837
  0
LINE
  5
23F
100
AcDbEntity
  8
BLACK
  6
CONTINUOUS
 62
  256
370
   -1
100
AcDbLine
 10
102.36
 20
-111.837
 11
102.362
 21
-111.83
  0
LINE
  5
240
100
AcDbEntity
  8
BLACK
  6
CONTINUOUS
 62
  256
370
   -1
100
AcDbLine
 10
102.362
 20
-111.83
 11
102.373
 21
-111.814
  0
LINE
  5
241
100
AcDbEntity
  8
BLACK
  6
CONTINUOUS
 62
  256
370
   -1
100
AcDbLine
 10
102.373
 20
-111.814
 11
102.383
 21
-111.797
  0
LINE
  5
242
100
AcDbEntity
  8
BLACK
  6
CONTINUOUS
 62
  256
370
   -1
100
AcDbLine
 10
102.383
 20
-111.797
 11
102.399
 21
-111.784
  0
LINE
  5
243
100
AcDbEntity
  8
BLACK
  6
CONTINUOUS
 62
  256
370
   -1
100
AcDbLine
 10
102.399
 20
-111.784
 11
102.85
 21
-111.333
  0
LINE
  5
244
100
AcDbEntity
  8
BLACK
  6
CONTINUOUS
 62
  256
370
   -1
100
AcDbLine
 10
102.85
 20
-111.333
 11
102.85
 21
-99.4121
  0
LINE
  5
245
100
AcDbEntity
  8
BLACK
  6
CONTINUOUS
 62
  256
370
   -1
100
AcDbLine
 10
102.85
 20
-99.4121
 11
102.503
 21
-99.06529999999999
  0
LINE
  5
246
100
AcDbEntity
  8
BLACK
  6
CONTINUOUS
 62
  256
370
   -1
100
AcDbLine
 10
102.503
 20
-99.06529999999999
 11
102.503
 21
-99.06529999999999
  0
LINE
  5
247
100
AcDbEntity
  8
BLACK
  6
CONTINUOUS
 62
  256
370
   -1
100
AcDbLine
 10
102.503
 20
-99.06529999999999
 11
102.358
 21
-98.9204
  0
LINE
  5
248
100
AcDbEntity
  8
BLACK
  6
CONTINUOUS
 62
  256
370
   -1
100
AcDbLine
 10
102.358
 20
-98.9204
 11
102.339
 21
-98.93170000000001
  0
LINE
  5
249
100
AcDbEntity
  8
BLACK
  6
CONTINUOUS
 62
  256
370
   -1
100
AcDbLine
 10
102.339
 20
-98.93170000000001
 11
102.2
 21
-98.9562
  0
LINE
  5
24A
100
AcDbEntity
  8
BLACK
  6
CONTINUOUS
 62
  256
370
   -1
100
AcDbLine
 10
102.2
 20
-98.9562
 11
102.061
 21
-98.93170000000001
  0
LINE
  5
24B
100
AcDbEntity
  8
BLACK
  6
CONTINUOUS
 62
  256
370
   -1
100
AcDbLine
 10
102.061
 20
-98.93170000000001
 11
101.939
 21
-98.86109999999999
  0
LINE
  5
24C
100
AcDbEntity
  8
BLACK
  6
CONTINUOUS
 62
  256
370
   -1
100
AcDbLine
 10
101.939
 20
-98.86109999999999
 11
101.848
 21
-98.7531
  0
LINE
  5
24D
100
AcDbEntity
  8
BLACK
  6
CONTINUOUS
 62
  256
370
   -1
100
AcDbLine
 10
101.848
 20
-98.7531
 11
101.8
 21
-98.62050000000001
  0
LINE
  5
24E
100
AcDbEntity
  8
BLACK
  6
CONTINUOUS
 62
  256
370
   -1
100
AcDbLine
 10
101.8
 20
-98.62050000000001
 11
101.8
 21
-98.4795
  0
LINE
  5
24F
100
AcDbEntity
  8
BLACK
  6
CONTINUOUS
 62
  256
370
   -1
100
AcDbLine
 10
101.8
 20
-98.4795
 11
101.848
 21
-98.34690000000001
  0
LINE
  5
250
100
AcDbEntity
  8
BLACK
  6
CONTINUOUS
 62
  256
370
   -1
100
AcDbLine
 10
101.848
 20
-98.34690000000001
 11
101.939
 21
-98.2388
  0
LINE
  5
251
100
AcDbEntity
  8
BLACK
  6
CONTINUOUS
 62
  256
370
   -1
100
AcDbLine
 10
101.939
 20
-98.2388
 11
102.061
 21
-98.1683
  0
LINE
  5
252
100
AcDbEntity
  8
BLACK
  6
CONTINUOUS
 62
  256
370
   -1
100
AcDbLine
 10
102.061
 20
-98.1683
 11
102.2
 21
-98.1438
  0
LINE
  5
253
100
AcDbEntity
  8
BLACK
  6
CONTINUOUS
 62
  256
370
   -1
100
AcDbLine
 10
102.2
 20
-98.1438
 11
102.339
 21
-98.1683
  0
LINE
  5
254
100
AcDbEntity
  8
BLACK
  6
CONTINUOUS
 62
  256
370
   -1
100
AcDbLine
 10
115.256
 20
-122.773
 11
115.744
 21
-123.055
  0
LINE
  5
255
100
AcDbEntity
  8
BLACK
  6
CONTINUOUS
 62
  256
370
   -1
100
AcDbLine
 10
115.744
 20
-123.055
 11
116.107
 21
-123.488
  0
LINE
  5
256
100
AcDbEntity
  8
BLACK
  6
CONTINUOUS
 62
  256
370
   -1
100
AcDbLine
 10
116.107
 20
-123.488
 11
116.3
 21
-124.018
  0
LINE
  5
257
100
AcDbEntity
  8
BLACK
  6
CONTINUOUS
 62
  256
370
   -1
100
AcDbLine
 10
116.3
 20
-124.018
 11
116.3
 21
-124.582
  0
LINE
  5
258
100
AcDbEntity
  8
BLACK
  6
CONTINUOUS
 62
  256
370
   -1
100
AcDbLine
 10
116.3
 20
-124.582
 11
116.107
 21
-125.112
  0
LINE
  5
259
100
AcDbEntity
  8
BLACK
  6
CONTINUOUS
 62
  256
370
   -1
100
AcDbLine
 10
116.107
 20
-125.112
 11
115.744
 21
-125.545
  0
LINE
  5
25A
100
AcDbEntity
  8
BLACK
  6
CONTINUOUS
 62
  256
370
   -1
100
AcDbLine
 10
115.744
 20
-125.545
 11
115.256
 21
-125.827
  0
LINE
  5
25B
100
AcDbEntity
  8
BLACK
  6
CONTINUOUS
 62
  256
370
   -1
100
AcDbLine
 10
115.256
 20
-125.827
 11
114.7
 21
-125.925
  0
LINE
  5
25C
100
AcDbEntity
  8
BLACK
  6
CONTINUOUS
 62
  256
370
   -1
100
AcDbLine
 10
114.7
 20
-125.925
 11
114.144
 21
-125.827
  0
LINE
  5
25D
100
AcDbEntity
  8
BLACK
  6
CONTINUOUS
 62
  256
370
   -1
100
AcDbLine
 10
114.144
 20
-125.827
 11
113.656
 21
-125.545
  0
LINE
  5
25E
100
AcDbEntity
  8
BLACK
  6
CONTINUOUS
 62
  256
370
   -1
100
AcDbLine
 10
113.656
 20
-125.545
 11
113.293
 21
-125.112
  0
LINE
  5
25F
100
AcDbEntity
  8
BLACK
  6
CONTINUOUS
 62
  256
370
   -1
100
AcDbLine
 10
113.293
 20
-125.112
 11
113.1
 21
-124.582
  0
LINE
  5
260
100
AcDbEntity
  8
BLACK
  6
CONTINUOUS
 62
  256
370
   -1
100
AcDbLine
 10
113.1
 20
-124.582
 11
113.1
 21
-124.018
  0
LINE
  5
261
100
AcDbEntity
  8
BLACK
  6
CONTINUOUS
 62
  256
370
   -1
100
AcDbLine
 10
113.1
 20
-124.018
 11
113.293
 21
-123.488
  0
LINE
  5
262
100
AcDbEntity
  8
BLACK
  6
CONTINUOUS
 62
  256
370
   -1
100
AcDbLine
 10
113.293
 20
-123.488
 11
113.656
 21
-123.055
  0
LINE
  5
263
100
AcDbEntity
  8
BLACK
  6
CONTINUOUS
 62
  256
370
   -1
100
AcDbLine
 10
113.656
 20
-123.055
 11
114.144
 21
-122.773
  0
LINE
  5
264
100
AcDbEntity
  8
BLACK
  6
CONTINUOUS
 62
  256
370
   -1
100
AcDbLine
 10
114.144
 20
-122.773
 11
114.7
 21
-122.675
  0
LINE
  5
265
100
AcDbEntity
  8
BLACK
  6
CONTINUOUS
 62
  256
370
   -1
100
AcDbLine
 10
114.7
 20
-122.675
 11
115.256
 21
-122.773
  0
LINE
  5
266
100
AcDbEntity
  8
BLACK
  6
CONTINUOUS
 62
  256
370
   -1
100
AcDbLine
 10
144.156
 20
-122.773
 11
144.644
 21
-123.055
  0
LINE
  5
267
100
AcDbEntity
  8
BLACK
  6
CONTINUOUS
 62
  256
370
   -1
100
AcDbLine
 10
144.644
 20
-123.055
 11
145.007
 21
-123.488
  0
LINE
  5
268
100
AcDbEntity
  8
BLACK
  6
CONTINUOUS
 62
  256
370
   -1
100
AcDbLine
 10
145.007
 20
-123.488
 11
145.2
 21
-124.018
  0
LINE
  5
269
100
AcDbEntity
  8
BLACK
  6
CONTINUOUS
 62
  256
370
   -1
100
AcDbLine
 10
145.2
 20
-124.018
 11
145.2
 21
-124.582
  0
LINE
  5
26A
100
AcDbEntity
  8
BLACK
  6
CONTINUOUS
 62
  256
370
   -1
100
AcDbLine
 10
145.2
 20
-124.582
 11
145.007
 21
-125.112
  0
LINE
  5
26B
100
AcDbEntity
  8
BLACK
  6
CONTINUOUS
 62
  256
370
   -1
100
AcDbLine
 10
145.007
 20
-125.112
 11
144.644
 21
-125.545
  0
LINE
  5
26C
100
AcDbEntity
  8
BLACK
  6
CONTINUOUS
 62
  256
370
   -1
100
AcDbLine
 10
144.644
 20
-125.545
 11
144.156
 21
-125.827
  0
LINE
  5
26D
100
AcDbEntity
  8
BLACK
  6
CONTINUOUS
 62
  256
370
   -1
100
AcDbLine
 10
144.156
 20
-125.827
 11
143.6
 21
-125.925
  0
LINE
  5
26E
100
AcDbEntity
  8
BLACK
  6
CONTINUOUS
 62
  256
370
   -1
100
AcDbLine
 10
143.6
 20
-125.925
 11
143.044
 21
-125.827
  0
LINE
  5
26F
100
AcDbEntity
  8
BLACK
  6
CONTINUOUS
 62
  256
370
   -1
100
AcDbLine
 10
143.044
 20
-125.827
 11
142.556
 21
-125.545
  0
LINE
  5
270
100
AcDbEntity
  8
BLACK
  6
CONTINUOUS
 62
  256
370
   -1
100
AcDbLine
 10
142.556
 20
-125.545
 11
142.193
 21
-125.112
  0
LINE
  5
271
100
AcDbEntity
  8
BLACK
  6
CONTINUOUS
 62
  256
370
   -1
100
AcDbLine
 10
142.193
 20
-125.112
 11
142
 21
-124.582
  0
LINE
  5
272
100
AcDbEntity
  8
BLACK
  6
CONTINUOUS
 62
  256
370
   -1
100
AcDbLine
 10
142
 20
-124.582
 11
142
 21
-124.018
  0
LINE
  5
273
100
AcDbEntity
  8
BLACK
  6
CONTINUOUS
 62
  256
370
   -1
100
AcDbLine
 10
142
 20
-124.018
 11
142.193
 21
-123.488
  0
LINE
  5
274
100
AcDbEntity
  8
BLACK
  6
CONTINUOUS
 62
  256
370
   -1
100
AcDbLine
 10
142.193
 20
-123.488
 11
142.556
 21
-123.055
  0
LINE
  5
275
100
AcDbEntity
  8
BLACK
  6
CONTINUOUS
 62
  256
370
   -1
100
AcDbLine
 10
142.556
 20
-123.055
 11
143.044
 21
-122.773
  0
LINE
  5
276
100
AcDbEntity
  8
BLACK
  6
CONTINUOUS
 62
  256
370
   -1
100
AcDbLine
 10
143.044
 20
-122.773
 11
143.6
 21
-122.675
  0
LINE
  5
277
100
AcDbEntity
  8
BLACK
  6
CONTINUOUS
 62
  256
370
   -1
100
AcDbLine
 10
143.6
 20
-122.675
 11
144.156
 21
-122.773
  0
LINE
  5
278
100
AcDbEntity
  8
BLACK
  6
CONTINUOUS
 62
  256
370
   -1
100
AcDbLine
 10
156.182
 20
-122.25
 11
156.518
 21
-122.444
  0
LINE
  5
279
100
AcDbEntity
  8
BLACK
  6
CONTINUOUS
 62
  256
370
   -1
100
AcDbLine
 10
156.518
 20
-122.444
 11
156.767
 21
-122.742
  0
LINE
  5
27A
100
AcDbEntity
  8
BLACK
  6
CONTINUOUS
 62
  256
370
   -1
100
AcDbLine
 10
156.767
 20
-122.742
 11
156.9
 21
-123.106
  0
LINE
  5
27B
100
AcDbEntity
  8
BLACK
  6
CONTINUOUS
 62
  256
370
   -1
100
AcDbLine
 10
156.9
 20
-123.106
 11
156.9
 21
-123.494
  0
LINE
  5
27C
100
AcDbEntity
  8
BLACK
  6
CONTINUOUS
 62
  256
370
   -1
100
AcDbLine
 10
156.9
 20
-123.494
 11
156.767
 21
-123.858
  0
LINE
  5
27D
100
AcDbEntity
  8
BLACK
  6
CONTINUOUS
 62
  256
370
   -1
100
AcDbLine
 10
156.767
 20
-123.858
 11
156.518
 21
-124.156
  0
LINE
  5
27E
100
AcDbEntity
  8
BLACK
  6
CONTINUOUS
 62
  256
370
   -1
100
AcDbLine
 10
156.518
 20
-124.156
 11
156.182
 21
-124.35
  0
LINE
  5
27F
100
AcDbEntity
  8
BLACK
  6
CONTINUOUS
 62
  256
370
   -1
100
AcDbLine
 10
156.182
 20
-124.35
 11
155.8
 21
-124.417
  0
LINE
  5
280
100
AcDbEntity
  8
BLACK
  6
CONTINUOUS
 62
  256
370
   -1
100
AcDbLine
 10
155.8
 20
-124.417
 11
155.418
 21
-124.35
  0
LINE
  5
281
100
AcDbEntity
  8
BLACK
  6
CONTINUOUS
 62
  256
370
   -1
100
AcDbLine
 10
155.418
 20
-124.35
 11
155.082
 21
-124.156
  0
LINE
  5
282
100
AcDbEntity
  8
BLACK
  6
CONTINUOUS
 62
  256
370
   -1
100
AcDbLine
 10
155.082
 20
-124.156
 11
154.833
 21
-123.858
  0
LINE
  5
283
100
AcDbEntity
  8
BLACK
  6
CONTINUOUS
 62
  256
370
   -1
100
AcDbLine
 10
154.833
 20
-123.858
 11
154.7
 21
-123.494
  0
LINE
  5
284
100
AcDbEntity
  8
BLACK
  6
CONTINUOUS
 62
  256
370
   -1
100
AcDbLine
 10
154.7
 20
-123.494
 11
154.7
 21
-123.106
  0
LINE
  5
285
100
AcDbEntity
  8
BLACK
  6
CONTINUOUS
 62
  256
370
   -1
100
AcDbLine
 10
154.7
 20
-123.106
 11
154.833
 21
-122.742
  0
LINE
  5
286
100
AcDbEntity
  8
BLACK
  6
CONTINUOUS
 62
  256
370
   -1
100
AcDbLine
 10
154.833
 20
-122.742
 11
155.082
 21
-122.444
  0
LINE
  5
287
100
AcDbEntity
  8
BLACK
  6
CONTINUOUS
 62
  256
370
   -1
100
AcDbLine
 10
155.082
 20
-122.444
 11
155.418
 21
-122.25
  0
LINE
  5
288
100
AcDbEntity
  8
BLACK
  6
CONTINUOUS
 62
  256
370
   -1
100
AcDbLine
 10
155.418
 20
-122.25
 11
155.8
 21
-122.183
  0
LINE
  5
289
100
AcDbEntity
  8
BLACK
  6
CONTINUOUS
 62
  256
370
   -1
100
AcDbLine
 10
155.8
 20
-122.183
 11
156.182
 21
-122.25
  0
LINE
  5
28A
100
AcDbEntity
  8
BLACK
  6
CONTINUOUS
 62
  256
370
   -1
100
AcDbLine
 10
102.982
 20
-122.25
 11
103.318
 21
-122.444
  0
LINE
  5
28B
100
AcDbEntity
  8
BLACK
  6
CONTINUOUS
 62
  256
370
   -1
100
AcDbLine
 10
103.318
 20
-122.444
 11
103.567
 21
-122.742
  0
LINE
  5
28C
100
AcDbEntity
  8
BLACK
  6
CONTINUOUS
 62
  256
370
   -1
100
AcDbLine
 10
103.567
 20
-122.742
 11
103.7
 21
-123.106
  0
LINE
  5
28D
100
AcDbEntity
  8
BLACK
  6
CONTINUOUS
 62
  256
370
   -1
100
AcDbLine
 10
103.7
 20
-123.106
 11
103.7
 21
-123.494
  0
LINE
  5
28E
100
AcDbEntity
  8
BLACK
  6
CONTINUOUS
 62
  256
370
   -1
100
AcDbLine
 10
103.7
 20
-123.494
 11
103.567
 21
-123.858
  0
LINE
  5
28F
100
AcDbEntity
  8
BLACK
  6
CONTINUOUS
 62
  256
370
   -1
100
AcDbLine
 10
103.567
 20
-123.858
 11
103.318
 21
-124.156
  0
LINE
  5
290
100
AcDbEntity
  8
BLACK
  6
CONTINUOUS
 62
  256
370
   -1
100
AcDbLine
 10
103.318
 20
-124.156
 11
102.982
 21
-124.35
  0
LINE
  5
291
100
AcDbEntity
  8
BLACK
  6
CONTINUOUS
 62
  256
370
   -1
100
AcDbLine
 10
102.982
 20
-124.35
 11
102.6
 21
-124.417
  0
LINE
  5
292
100
AcDbEntity
  8
BLACK
  6
CONTINUOUS
 62
  256
370
   -1
100
AcDbLine
 10
102.6
 20
-124.417
 11
102.218
 21
-124.35
  0
LINE
  5
293
100
AcDbEntity
  8
BLACK
  6
CONTINUOUS
 62
  256
370
   -1
100
AcDbLine
 10
102.218
 20
-124.35
 11
101.882
 21
-124.156
  0
LINE
  5
294
100
AcDbEntity
  8
BLACK
  6
CONTINUOUS
 62
  256
370
   -1
100
AcDbLine
 10
101.882
 20
-124.156
 11
101.633
 21
-123.858
  0
LINE
  5
295
100
AcDbEntity
  8
BLACK
  6
CONTINUOUS
 62
  256
370
   -1
100
AcDbLine
 10
101.633
 20
-123.858
 11
101.5
 21
-123.494
  0
LINE
  5
296
100
AcDbEntity
  8
BLACK
  6
CONTINUOUS
 62
  256
370
   -1
100
AcDbLine
 10
101.5
 20
-123.494
 11
101.5
 21
-123.106
  0
LINE
  5
297
100
AcDbEntity
  8
BLACK
  6
CONTINUOUS
 62
  256
370
   -1
100
AcDbLine
 10
101.5
 20
-123.106
 11
101.633
 21
-122.742
  0
LINE
  5
298
100
AcDbEntity
  8
BLACK
  6
CONTINUOUS
 62
  256
370
   -1
100
AcDbLine
 10
101.633
 20
-122.742
 11
101.882
 21
-122.444
  0
LINE
  5
299
100
AcDbEntity
  8
BLACK
  6
CONTINUOUS
 62
  256
370
   -1
100
AcDbLine
 10
101.882
 20
-122.444
 11
102.218
 21
-122.25
  0
LINE
  5
29A
100
AcDbEntity
  8
BLACK
  6
CONTINUOUS
 62
  256
370
   -1
100
AcDbLine
 10
102.218
 20
-122.25
 11
102.6
 21
-122.183
  0
LINE
  5
29B
100
AcDbEntity
  8
BLACK
  6
CONTINUOUS
 62
  256
370
   -1
100
AcDbLine
 10
102.6
 20
-122.183
 11
102.982
 21
-122.25
  0
LINE
  5
29C
100
AcDbEntity
  8
BLACK
  6
CONTINUOUS
 62
  256
370
   -1
100
AcDbLine
 10
102.488
 20
-95.9443
 11
102.611
 21
-96.01479999999999
  0
LINE
  5
29D
100
AcDbEntity
  8
BLACK
  6
CONTINUOUS
 62
  256
370
   -1
100
AcDbLine
 10
102.611
 20
-96.01479999999999
 11
102.701
 21
-96.1229
  0
LINE
  5
29E
100
AcDbEntity
  8
BLACK
  6
CONTINUOUS
 62
  256
370
   -1
100
AcDbLine
 10
102.701
 20
-96.1229
 11
102.749
 21
-96.25539999999999
  0
LINE
  5
29F
100
AcDbEntity
  8
BLACK
  6
CONTINUOUS
 62
  256
370
   -1
100
AcDbLine
 10
102.749
 20
-96.25539999999999
 11
102.749
 21
-96.3965
  0
LINE
  5
2A0
100
AcDbEntity
  8
BLACK
  6
CONTINUOUS
 62
  256
370
   -1
100
AcDbLine
 10
102.749
 20
-96.3965
 11
102.701
 21
-96.529
  0
LINE
  5
2A1
100
AcDbEntity
  8
BLACK
  6
CONTINUOUS
 62
  256
370
   -1
100
AcDbLine
 10
102.701
 20
-96.529
 11
102.611
 21
-96.6371
  0
LINE
  5
2A2
100
AcDbEntity
  8
BLACK
  6
CONTINUOUS
 62
  256
370
   -1
100
AcDbLine
 10
102.611
 20
-96.6371
 11
102.488
 21
-96.7076
  0
LINE
  5
2A3
100
AcDbEntity
  8
BLACK
  6
CONTINUOUS
 62
  256
370
   -1
100
AcDbLine
 10
102.488
 20
-96.7076
 11
102.349
 21
-96.7321
  0
LINE
  5
2A4
100
AcDbEntity
  8
BLACK
  6
CONTINUOUS
 62
  256
370
   -1
100
AcDbLine
 10
102.349
 20
-96.7321
 11
102.211
 21
-96.7076
  0
LINE
  5
2A5
100
AcDbEntity
  8
BLACK
  6
CONTINUOUS
 62
  256
370
   -1
100
AcDbLine
 10
102.211
 20
-96.7076
 11
102.191
 21
-96.6964
  0
LINE
  5
2A6
100
AcDbEntity
  8
BLACK
  6
CONTINUOUS
 62
  256
370
   -1
100
AcDbLine
 10
102.191
 20
-96.6964
 11
102.065
 21
-96.8228
  0
LINE
  5
2A7
100
AcDbEntity
  8
BLACK
  6
CONTINUOUS
 62
  256
370
   -1
100
AcDbLine
 10
102.065
 20
-96.8228
 11
102.065
 21
-96.8228
  0
LINE
  5
2A8
100
AcDbEntity
  8
BLACK
  6
CONTINUOUS
 62
  256
370
   -1
100
AcDbLine
 10
102.065
 20
-96.8228
 11
101.65
 21
-97.2375
  0
LINE
  5
2A9
100
AcDbEntity
  8
BLACK
  6
CONTINUOUS
 62
  256
370
   -1
100
AcDbLine
 10
101.65
 20
-97.2375
 11
101.65
 21
-98.0213
  0
LINE
  5
2AA
100
AcDbEntity
  8
BLACK
  6
CONTINUOUS
 62
  256
370
   -1
100
AcDbLine
 10
101.65
 20
-98.0213
 11
101.652
 21
-98.0411
  0
LINE
  5
2AB
100
AcDbEntity
  8
BLACK
  6
CONTINUOUS
 62
  256
370
   -1
100
AcDbLine
 10
101.652
 20
-98.0411
 11
101.647
 21
-98.0603
  0
LINE
  5
2AC
100
AcDbEntity
  8
BLACK
  6
CONTINUOUS
 62
  256
370
   -1
100
AcDbLine
 10
101.647
 20
-98.0603
 11
101.643
 21
-98.07989999999999
  0
LINE
  5
2AD
100
AcDbEntity
  8
BLACK
  6
CONTINUOUS
 62
  256
370
   -1
100
AcDbLine
 10
101.643
 20
-98.07989999999999
 11
101.64
 21
-98.0857
  0
LINE
  5
2AE
100
AcDbEntity
  8
BLACK
  6
CONTINUOUS
 62
  256
370
   -1
100
AcDbLine
 10
101.64
 20
-98.0857
 11
101.638
 21
-98.09220000000001
  0
LINE
  5
2AF
100
AcDbEntity
  8
BLACK
  6
CONTINUOUS
 62
  256
370
   -1
100
AcDbLine
 10
101.638
 20
-98.09220000000001
 11
101.627
 21
-98.10850000000001
  0
LINE
  5
2B0
100
AcDbEntity
  8
BLACK
  6
CONTINUOUS
 62
  256
370
   -1
100
AcDbLine
 10
101.627
 20
-98.10850000000001
 11
101.617
 21
-98.12569999999999
  0
LINE
  5
2B1
100
AcDbEntity
  8
BLACK
  6
CONTINUOUS
 62
  256
370
   -1
100
AcDbLine
 10
101.617
 20
-98.12569999999999
 11
101.601
 21
-98.13849999999999
  0
LINE
  5
2B2
100
AcDbEntity
  8
BLACK
  6
CONTINUOUS
 62
  256
370
   -1
100
AcDbLine
 10
101.601
 20
-98.13849999999999
 11
101.3
 21
-98.44
  0
LINE
  5
2B3
100
AcDbEntity
  8
BLACK
  6
CONTINUOUS
 62
  256
370
   -1
100
AcDbLine
 10
101.3
 20
-98.44
 11
101.3
 21
-98.74590000000001
  0
LINE
  5
2B4
100
AcDbEntity
  8
BLACK
  6
CONTINUOUS
 62
  256
370
   -1
100
AcDbLine
 10
101.3
 20
-98.74590000000001
 11
102.493
 21
-99.9393
  0
LINE
  5
2B5
100
AcDbEntity
  8
BLACK
  6
CONTINUOUS
 62
  256
370
   -1
100
AcDbLine
 10
102.493
 20
-99.9393
 11
102.509
 21
-99.9521
  0
LINE
  5
2B6
100
AcDbEntity
  8
BLACK
  6
CONTINUOUS
 62
  256
370
   -1
100
AcDbLine
 10
102.509
 20
-99.9521
 11
102.519
 21
-99.9693
  0
LINE
  5
2B7
100
AcDbEntity
  8
BLACK
  6
CONTINUOUS
 62
  256
370
   -1
100
AcDbLine
 10
102.519
 20
-99.9693
 11
102.53
 21
-99.98560000000001
  0
LINE
  5
2B8
100
AcDbEntity
  8
BLACK
  6
CONTINUOUS
 62
  256
370
   -1
100
AcDbLine
 10
102.53
 20
-99.98560000000001
 11
102.532
 21
-99.99209999999999
  0
LINE
  5
2B9
100
AcDbEntity
  8
BLACK
  6
CONTINUOUS
 62
  256
370
   -1
100
AcDbLine
 10
102.532
 20
-99.99209999999999
 11
102.535
 21
-99.9979
  0
LINE
  5
2BA
100
AcDbEntity
  8
BLACK
  6
CONTINUOUS
 62
  256
370
   -1
100
AcDbLine
 10
102.535
 20
-99.9979
 11
102.539
 21
-100.018
  0
LINE
  5
2BB
100
AcDbEntity
  8
BLACK
  6
CONTINUOUS
 62
  256
370
   -1
100
AcDbLine
 10
102.539
 20
-100.018
 11
102.544
 21
-100.037
  0
LINE
  5
2BC
100
AcDbEntity
  8
BLACK
  6
CONTINUOUS
 62
  256
370
   -1
100
AcDbLine
 10
102.544
 20
-100.037
 11
102.542
 21
-100.057
  0
LINE
  5
2BD
100
AcDbEntity
  8
BLACK
  6
CONTINUOUS
 62
  256
370
   -1
100
AcDbLine
 10
102.542
 20
-100.057
 11
102.542
 21
-111.148
  0
LINE
  5
2BE
100
AcDbEntity
  8
BLACK
  6
CONTINUOUS
 62
  256
370
   -1
100
AcDbLine
 10
102.542
 20
-111.148
 11
102.544
 21
-111.167
  0
LINE
  5
2BF
100
AcDbEntity
  8
BLACK
  6
CONTINUOUS
 62
  256
370
   -1
100
AcDbLine
 10
102.544
 20
-111.167
 11
102.539
 21
-111.187
  0
LINE
  5
2C0
100
AcDbEntity
  8
BLACK
  6
CONTINUOUS
 62
  256
370
   -1
100
AcDbLine
 10
102.539
 20
-111.187
 11
102.535
 21
-111.206
  0
LINE
  5
2C1
100
AcDbEntity
  8
BLACK
  6
CONTINUOUS
 62
  256
370
   -1
100
AcDbLine
 10
102.535
 20
-111.206
 11
102.532
 21
-111.212
  0
LINE
  5
2C2
100
AcDbEntity
  8
BLACK
  6
CONTINUOUS
 62
  256
370
   -1
100
AcDbLine
 10
102.532
 20
-111.212
 11
102.53
 21
-111.218
  0
LINE
  5
2C3
100
AcDbEntity
  8
BLACK
  6
CONTINUOUS
 62
  256
370
   -1
100
AcDbLine
 10
102.53
 20
-111.218
 11
102.519
 21
-111.235
  0
LINE
  5
2C4
100
AcDbEntity
  8
BLACK
  6
CONTINUOUS
 62
  256
370
   -1
100
AcDbLine
 10
102.519
 20
-111.235
 11
102.509
 21
-111.252
  0
LINE
  5
2C5
100
AcDbEntity
  8
BLACK
  6
CONTINUOUS
 62
  256
370
   -1
100
AcDbLine
 10
102.509
 20
-111.252
 11
102.493
 21
-111.265
  0
LINE
  5
2C6
100
AcDbEntity
  8
BLACK
  6
CONTINUOUS
 62
  256
370
   -1
100
AcDbLine
 10
102.493
 20
-111.265
 11
102.05
 21
-111.708
  0
LINE
  5
2C7
100
AcDbEntity
  8
BLACK
  6
CONTINUOUS
 62
  256
370
   -1
100
AcDbLine
 10
102.05
 20
-111.708
 11
102.05
 21
-121.293
  0
LINE
  5
2C8
100
AcDbEntity
  8
BLACK
  6
CONTINUOUS
 62
  256
370
   -1
100
AcDbLine
 10
102.05
 20
-121.293
 11
102.052
 21
-121.313
  0
LINE
  5
2C9
100
AcDbEntity
  8
BLACK
  6
CONTINUOUS
 62
  256
370
   -1
100
AcDbLine
 10
102.052
 20
-121.313
 11
102.047
 21
-121.332
  0
LINE
  5
2CA
100
AcDbEntity
  8
BLACK
  6
CONTINUOUS
 62
  256
370
   -1
100
AcDbLine
 10
102.047
 20
-121.332
 11
102.043
 21
-121.352
  0
LINE
  5
2CB
100
AcDbEntity
  8
BLACK
  6
CONTINUOUS
 62
  256
370
   -1
100
AcDbLine
 10
102.043
 20
-121.352
 11
102.04
 21
-121.358
  0
LINE
  5
2CC
100
AcDbEntity
  8
BLACK
  6
CONTINUOUS
 62
  256
370
   -1
100
AcDbLine
 10
102.04
 20
-121.358
 11
102.038
 21
-121.364
  0
LINE
  5
2CD
100
AcDbEntity
  8
BLACK
  6
CONTINUOUS
 62
  256
370
   -1
100
AcDbLine
 10
102.038
 20
-121.364
 11
102.027
 21
-121.381
  0
LINE
  5
2CE
100
AcDbEntity
  8
BLACK
  6
CONTINUOUS
 62
  256
370
   -1
100
AcDbLine
 10
102.027
 20
-121.381
 11
102.017
 21
-121.398
  0
LINE
  5
2CF
100
AcDbEntity
  8
BLACK
  6
CONTINUOUS
 62
  256
370
   -1
100
AcDbLine
 10
102.017
 20
-121.398
 11
102.001
 21
-121.411
  0
LINE
  5
2D0
100
AcDbEntity
  8
BLACK
  6
CONTINUOUS
 62
  256
370
   -1
100
AcDbLine
 10
102.001
 20
-121.411
 11
100.269
 21
-123.143
  0
LINE
  5
2D1
100
AcDbEntity
  8
BLACK
  6
CONTINUOUS
 62
  256
370
   -1
100
AcDbLine
 10
100.269
 20
-123.143
 11
100.3
 21
-123.229
  0
LINE
  5
2D2
100
AcDbEntity
  8
BLACK
  6
CONTINUOUS
 62
  256
370
   -1
100
AcDbLine
 10
100.3
 20
-123.229
 11
100.3
 21
-123.371
  0
LINE
  5
2D3
100
AcDbEntity
  8
BLACK
  6
CONTINUOUS
 62
  256
370
   -1
100
AcDbLine
 10
100.3
 20
-123.371
 11
100.252
 21
-123.503
  0
LINE
  5
2D4
100
AcDbEntity
  8
BLACK
  6
CONTINUOUS
 62
  256
370
   -1
100
AcDbLine
 10
100.252
 20
-123.503
 11
100.161
 21
-123.611
  0
LINE
  5
2D5
100
AcDbEntity
  8
BLACK
  6
CONTINUOUS
 62
  256
370
   -1
100
AcDbLine
 10
100.161
 20
-123.611
 11
100.039
 21
-123.682
  0
LINE
  5
2D6
100
AcDbEntity
  8
BLACK
  6
CONTINUOUS
 62
  256
370
   -1
100
AcDbLine
 10
100.039
 20
-123.682
 11
99.90000000000001
 21
-123.706
  0
LINE
  5
2D7
100
AcDbEntity
  8
BLACK
  6
CONTINUOUS
 62
  256
370
   -1
100
AcDbLine
 10
99.90000000000001
 20
-123.706
 11
99.7611
 21
-123.682
  0
LINE
  5
2D8
100
AcDbEntity
  8
BLACK
  6
CONTINUOUS
 62
  256
370
   -1
100
AcDbLine
 10
99.7611
 20
-123.682
 11
99.63890000000001
 21
-123.611
  0
LINE
  5
2D9
100
AcDbEntity
  8
BLACK
  6
CONTINUOUS
 62
  256
370
   -1
100
AcDbLine
 10
99.63890000000001
 20
-123.611
 11
99.54819999999999
 21
-123.503
  0
LINE
  5
2DA
100
AcDbEntity
  8
BLACK
  6
CONTINUOUS
 62
  256
370
   -1
100
AcDbLine
 10
99.54819999999999
 20
-123.503
 11
99.5
 21
-123.371
  0
LINE
  5
2DB
100
AcDbEntity
  8
BLACK
  6
CONTINUOUS
 62
  256
370
   -1
100
AcDbLine
 10
99.5
 20
-123.371
 11
99.5
 21
-123.229
  0
LINE
  5
2DC
100
AcDbEntity
  8
BLACK
  6
CONTINUOUS
 62
  256
370
   -1
100
AcDbLine
 10
99.5
 20
-123.229
 11
99.54819999999999
 21
-123.097
  0
LINE
  5
2DD
100
AcDbEntity
  8
BLACK
  6
CONTINUOUS
 62
  256
370
   -1
100
AcDbLine
 10
99.54819999999999
 20
-123.097
 11
99.63890000000001
 21
-122.989
  0
LINE
  5
2DE
100
AcDbEntity
  8
BLACK
  6
CONTINUOUS
 62
  256
370
   -1
100
AcDbLine
 10
99.63890000000001
 20
-122.989
 11
99.7611
 21
-122.918
  0
LINE
  5
2DF
100
AcDbEntity
  8
BLACK
  6
CONTINUOUS
 62
  256
370
   -1
100
AcDbLine
 10
99.7611
 20
-122.918
 11
99.90000000000001
 21
-122.894
  0
LINE
  5
2E0
100
AcDbEntity
  8
BLACK
  6
CONTINUOUS
 62
  256
370
   -1
100
AcDbLine
 10
99.90000000000001
 20
-122.894
 11
100.039
 21
-122.918
  0
LINE
  5
2E1
100
AcDbEntity
  8
BLACK
  6
CONTINUOUS
 62
  256
370
   -1
100
AcDbLine
 10
100.039
 20
-122.918
 11
100.058
 21
-122.93
  0
LINE
  5
2E2
100
AcDbEntity
  8
BLACK
  6
CONTINUOUS
 62
  256
370
   -1
100
AcDbLine
 10
100.058
 20
-122.93
 11
101.75
 21
-121.238
  0
LINE
  5
2E3
100
AcDbEntity
  8
BLACK
  6
CONTINUOUS
 62
  256
370
   -1
100
AcDbLine
 10
101.75
 20
-121.238
 11
101.75
 21
-111.653
  0
LINE
  5
2E4
100
AcDbEntity
  8
BLACK
  6
CONTINUOUS
 62
  256
370
   -1
100
AcDbLine
 10
101.75
 20
-111.653
 11
101.748
 21
-111.633
  0
LINE
  5
2E5
100
AcDbEntity
  8
BLACK
  6
CONTINUOUS
 62
  256
370
   -1
100
AcDbLine
 10
101.748
 20
-111.633
 11
101.753
 21
-111.614
  0
LINE
  5
2E6
100
AcDbEntity
  8
BLACK
  6
CONTINUOUS
 62
  256
370
   -1
100
AcDbLine
 10
101.753
 20
-111.614
 11
101.757
 21
-111.594
  0
LINE
  5
2E7
100
AcDbEntity
  8
BLACK
  6
CONTINUOUS
 62
  256
370
   -1
100
AcDbLine
 10
101.757
 20
-111.594
 11
101.76
 21
-111.588
  0
LINE
  5
2E8
100
AcDbEntity
  8
BLACK
  6
CONTINUOUS
 62
  256
370
   -1
100
AcDbLine
 10
101.76
 20
-111.588
 11
101.762
 21
-111.582
  0
LINE
  5
2E9
100
AcDbEntity
  8
BLACK
  6
CONTINUOUS
 62
  256
370
   -1
100
AcDbLine
 10
101.762
 20
-111.582
 11
101.773
 21
-111.565
  0
LINE
  5
2EA
100
AcDbEntity
  8
BLACK
  6
CONTINUOUS
 62
  256
370
   -1
100
AcDbLine
 10
101.773
 20
-111.565
 11
101.783
 21
-111.548
  0
LINE
  5
2EB
100
AcDbEntity
  8
BLACK
  6
CONTINUOUS
 62
  256
370
   -1
100
AcDbLine
 10
101.783
 20
-111.548
 11
101.799
 21
-111.535
  0
LINE
  5
2EC
100
AcDbEntity
  8
BLACK
  6
CONTINUOUS
 62
  256
370
   -1
100
AcDbLine
 10
101.799
 20
-111.535
 11
102.242
 21
-111.092
  0
LINE
  5
2ED
100
AcDbEntity
  8
BLACK
  6
CONTINUOUS
 62
  256
370
   -1
100
AcDbLine
 10
102.242
 20
-111.092
 11
102.242
 21
-100.112
  0
LINE
  5
2EE
100
AcDbEntity
  8
BLACK
  6
CONTINUOUS
 62
  256
370
   -1
100
AcDbLine
 10
102.242
 20
-100.112
 11
101.049
 21
-98.9187
  0
LINE
  5
2EF
100
AcDbEntity
  8
BLACK
  6
CONTINUOUS
 62
  256
370
   -1
100
AcDbLine
 10
101.049
 20
-98.9187
 11
101.033
 21
-98.9059
  0
LINE
  5
2F0
100
AcDbEntity
  8
BLACK
  6
CONTINUOUS
 62
  256
370
   -1
100
AcDbLine
 10
101.033
 20
-98.9059
 11
101.023
 21
-98.8887
  0
LINE
  5
2F1
100
AcDbEntity
  8
BLACK
  6
CONTINUOUS
 62
  256
370
   -1
100
AcDbLine
 10
101.023
 20
-98.8887
 11
101.012
 21
-98.8724
  0
LINE
  5
2F2
100
AcDbEntity
  8
BLACK
  6
CONTINUOUS
 62
  256
370
   -1
100
AcDbLine
 10
101.012
 20
-98.8724
 11
101.01
 21
-98.8659
  0
LINE
  5
2F3
100
AcDbEntity
  8
BLACK
  6
CONTINUOUS
 62
  256
370
   -1
100
AcDbLine
 10
101.01
 20
-98.8659
 11
101.007
 21
-98.8601
  0
LINE
  5
2F4
100
AcDbEntity
  8
BLACK
  6
CONTINUOUS
 62
  256
370
   -1
100
AcDbLine
 10
101.007
 20
-98.8601
 11
101.003
 21
-98.84050000000001
  0
LINE
  5
2F5
100
AcDbEntity
  8
BLACK
  6
CONTINUOUS
 62
  256
370
   -1
100
AcDbLine
 10
101.003
 20
-98.84050000000001
 11
100.998
 21
-98.82129999999999
  0
LINE
  5
2F6
100
AcDbEntity
  8
BLACK
  6
CONTINUOUS
 62
  256
370
   -1
100
AcDbLine
 10
100.998
 20
-98.82129999999999
 11
101
 21
-98.8015
  0
LINE
  5
2F7
100
AcDbEntity
  8
BLACK
  6
CONTINUOUS
 62
  256
370
   -1
100
AcDbLine
 10
101
 20
-98.8015
 11
101
 21
-98.3844
  0
LINE
  5
2F8
100
AcDbEntity
  8
BLACK
  6
CONTINUOUS
 62
  256
370
   -1
100
AcDbLine
 10
101
 20
-98.3844
 11
100.998
 21
-98.36450000000001
  0
LINE
  5
2F9
100
AcDbEntity
  8
BLACK
  6
CONTINUOUS
 62
  256
370
   -1
100
AcDbLine
 10
100.998
 20
-98.36450000000001
 11
101.003
 21
-98.34529999999999
  0
LINE
  5
2FA
100
AcDbEntity
  8
BLACK
  6
CONTINUOUS
 62
  256
370
   -1
100
AcDbLine
 10
101.003
 20
-98.34529999999999
 11
101.007
 21
-98.3257
  0
LINE
  5
2FB
100
AcDbEntity
  8
BLACK
  6
CONTINUOUS
 62
  256
370
   -1
100
AcDbLine
 10
101.007
 20
-98.3257
 11
101.01
 21
-98.3199
  0
LINE
  5
2FC
100
AcDbEntity
  8
BLACK
  6
CONTINUOUS
 62
  256
370
   -1
100
AcDbLine
 10
101.01
 20
-98.3199
 11
101.012
 21
-98.3135
  0
LINE
  5
2FD
100
AcDbEntity
  8
BLACK
  6
CONTINUOUS
 62
  256
370
   -1
100
AcDbLine
 10
101.012
 20
-98.3135
 11
101.023
 21
-98.2972
  0
LINE
  5
2FE
100
AcDbEntity
  8
BLACK
  6
CONTINUOUS
 62
  256
370
   -1
100
AcDbLine
 10
101.023
 20
-98.2972
 11
101.033
 21
-98.2799
  0
LINE
  5
2FF
100
AcDbEntity
  8
BLACK
  6
CONTINUOUS
 62
  256
370
   -1
100
AcDbLine
 10
101.033
 20
-98.2799
 11
101.049
 21
-98.2671
  0
LINE
  5
300
100
AcDbEntity
  8
BLACK
  6
CONTINUOUS
 62
  256
370
   -1
100
AcDbLine
 10
101.049
 20
-98.2671
 11
101.35
 21
-97.9657
  0
LINE
  5
301
100
AcDbEntity
  8
BLACK
  6
CONTINUOUS
 62
  256
370
   -1
100
AcDbLine
 10
101.35
 20
-97.9657
 11
101.35
 21
-97.1819
  0
LINE
  5
302
100
AcDbEntity
  8
BLACK
  6
CONTINUOUS
 62
  256
370
   -1
100
AcDbLine
 10
101.35
 20
-97.1819
 11
101.348
 21
-97.1621
  0
LINE
  5
303
100
AcDbEntity
  8
BLACK
  6
CONTINUOUS
 62
  256
370
   -1
100
AcDbLine
 10
101.348
 20
-97.1621
 11
101.353
 21
-97.1429
  0
LINE
  5
304
100
AcDbEntity
  8
BLACK
  6
CONTINUOUS
 62
  256
370
   -1
100
AcDbLine
 10
101.353
 20
-97.1429
 11
101.357
 21
-97.1233
  0
LINE
  5
305
100
AcDbEntity
  8
BLACK
  6
CONTINUOUS
 62
  256
370
   -1
100
AcDbLine
 10
101.357
 20
-97.1233
 11
101.36
 21
-97.11750000000001
  0
LINE
  5
306
100
AcDbEntity
  8
BLACK
  6
CONTINUOUS
 62
  256
370
   -1
100
AcDbLine
 10
101.36
 20
-97.11750000000001
 11
101.362
 21
-97.111
  0
LINE
  5
307
100
AcDbEntity
  8
BLACK
  6
CONTINUOUS
 62
  256
370
   -1
100
AcDbLine
 10
101.362
 20
-97.111
 11
101.373
 21
-97.0947
  0
LINE
  5
308
100
AcDbEntity
  8
BLACK
  6
CONTINUOUS
 62
  256
370
   -1
100
AcDbLine
 10
101.373
 20
-97.0947
 11
101.383
 21
-97.0775
  0
LINE
  5
309
100
AcDbEntity
  8
BLACK
  6
CONTINUOUS
 62
  256
370
   -1
100
AcDbLine
 10
101.383
 20
-97.0775
 11
101.399
 21
-97.0647
  0
LINE
  5
30A
100
AcDbEntity
  8
BLACK
  6
CONTINUOUS
 62
  256
370
   -1
100
AcDbLine
 10
101.399
 20
-97.0647
 11
101.853
 21
-96.61060000000001
  0
LINE
  5
30B
100
AcDbEntity
  8
BLACK
  6
CONTINUOUS
 62
  256
370
   -1
100
AcDbLine
 10
101.853
 20
-96.61060000000001
 11
101.853
 21
-96.61060000000001
  0
LINE
  5
30C
100
AcDbEntity
  8
BLACK
  6
CONTINUOUS
 62
  256
370
   -1
100
AcDbLine
 10
101.853
 20
-96.61060000000001
 11
101.981
 21
-96.4825
  0
LINE
  5
30D
100
AcDbEntity
  8
BLACK
  6
CONTINUOUS
 62
  256
370
   -1
100
AcDbLine
 10
101.981
 20
-96.4825
 11
101.949
 21
-96.3965
  0
LINE
  5
30E
100
AcDbEntity
  8
BLACK
  6
CONTINUOUS
 62
  256
370
   -1
100
AcDbLine
 10
101.949
 20
-96.3965
 11
101.949
 21
-96.25539999999999
  0
LINE
  5
30F
100
AcDbEntity
  8
BLACK
  6
CONTINUOUS
 62
  256
370
   -1
100
AcDbLine
 10
101.949
 20
-96.25539999999999
 11
101.998
 21
-96.1229
  0
LINE
  5
310
100
AcDbEntity
  8
BLACK
  6
CONTINUOUS
 62
  256
370
   -1
100
AcDbLine
 10
101.998
 20
-96.1229
 11
102.088
 21
-96.01479999999999
  0
LINE
  5
311
100
AcDbEntity
  8
BLACK
  6
CONTINUOUS
 62
  256
370
   -1
100
AcDbLine
 10
102.088
 20
-96.01479999999999
 11
102.211
 21
-95.9443
  0
LINE
  5
312
100
AcDbEntity
  8
BLACK
  6
CONTINUOUS
 62
  256
370
   -1
100
AcDbLine
 10
102.211
 20
-95.9443
 11
102.349
 21
-95.9198
  0
LINE
  5
313
100
AcDbEntity
  8
BLACK
  6
CONTINUOUS
 62
  256
370
   -1
100
AcDbLine
 10
102.349
 20
-95.9198
 11
102.488
 21
-95.9443
  0
LINE
  5
314
100
AcDbEntity
  8
BLACK
  6
CONTINUOUS
 62
  256
370
   -1
100
AcDbLine
 10
114.339
 20
-117.118
 11
114.461
 21
-117.189
  0
LINE
  5
315
100
AcDbEntity
  8
BLACK
  6
CONTINUOUS
 62
  256
370
   -1
100
AcDbLine
 10
114.461
 20
-117.189
 11
114.552
 21
-117.297
  0
LINE
  5
316
100
AcDbEntity
  8
BLACK
  6
CONTINUOUS
 62
  256
370
   -1
100
AcDbLine
 10
114.552
 20
-117.297
 11
114.6
 21
-117.429
  0
LINE
  5
317
100
AcDbEntity
  8
BLACK
  6
CONTINUOUS
 62
  256
370
   -1
100
AcDbLine
 10
114.6
 20
-117.429
 11
114.6
 21
-117.571
  0
LINE
  5
318
100
AcDbEntity
  8
BLACK
  6
CONTINUOUS
 62
  256
370
   -1
100
AcDbLine
 10
114.6
 20
-117.571
 11
114.552
 21
-117.703
  0
LINE
  5
319
100
AcDbEntity
  8
BLACK
  6
CONTINUOUS
 62
  256
370
   -1
100
AcDbLine
 10
114.552
 20
-117.703
 11
114.461
 21
-117.811
  0
LINE
  5
31A
100
AcDbEntity
  8
BLACK
  6
CONTINUOUS
 62
  256
370
   -1
100
AcDbLine
 10
114.461
 20
-117.811
 11
114.4
 21
-117.846
  0
LINE
  5
31B
100
AcDbEntity
  8
BLACK
  6
CONTINUOUS
 62
  256
370
   -1
100
AcDbLine
 10
114.4
 20
-117.846
 11
114.4
 21
-118.591
  0
LINE
  5
31C
100
AcDbEntity
  8
BLACK
  6
CONTINUOUS
 62
  256
370
   -1
100
AcDbLine
 10
114.4
 20
-118.591
 11
114.402
 21
-118.618
  0
LINE
  5
31D
100
AcDbEntity
  8
BLACK
  6
CONTINUOUS
 62
  256
370
   -1
100
AcDbLine
 10
114.402
 20
-118.618
 11
114.395
 21
-118.643
  0
LINE
  5
31E
100
AcDbEntity
  8
BLACK
  6
CONTINUOUS
 62
  256
370
   -1
100
AcDbLine
 10
114.395
 20
-118.643
 11
114.391
 21
-118.669
  0
LINE
  5
31F
100
AcDbEntity
  8
BLACK
  6
CONTINUOUS
 62
  256
370
   -1
100
AcDbLine
 10
114.391
 20
-118.669
 11
114.386
 21
-118.677
  0
LINE
  5
320
100
AcDbEntity
  8
BLACK
  6
CONTINUOUS
 62
  256
370
   -1
100
AcDbLine
 10
114.386
 20
-118.677
 11
114.384
 21
-118.686
  0
LINE
  5
321
100
AcDbEntity
  8
BLACK
  6
CONTINUOUS
 62
  256
370
   -1
100
AcDbLine
 10
114.384
 20
-118.686
 11
114.369
 21
-118.708
  0
LINE
  5
322
100
AcDbEntity
  8
BLACK
  6
CONTINUOUS
 62
  256
370
   -1
100
AcDbLine
 10
114.369
 20
-118.708
 11
114.356
 21
-118.731
  0
LINE
  5
323
100
AcDbEntity
  8
BLACK
  6
CONTINUOUS
 62
  256
370
   -1
100
AcDbLine
 10
114.356
 20
-118.731
 11
114.335
 21
-118.748
  0
LINE
  5
324
100
AcDbEntity
  8
BLACK
  6
CONTINUOUS
 62
  256
370
   -1
100
AcDbLine
 10
114.335
 20
-118.748
 11
112.888
 21
-120.195
  0
LINE
  5
325
100
AcDbEntity
  8
BLACK
  6
CONTINUOUS
 62
  256
370
   -1
100
AcDbLine
 10
112.888
 20
-120.195
 11
112.9
 21
-120.229
  0
LINE
  5
326
100
AcDbEntity
  8
BLACK
  6
CONTINUOUS
 62
  256
370
   -1
100
AcDbLine
 10
112.9
 20
-120.229
 11
112.9
 21
-120.371
  0
LINE
  5
327
100
AcDbEntity
  8
BLACK
  6
CONTINUOUS
 62
  256
370
   -1
100
AcDbLine
 10
112.9
 20
-120.371
 11
112.852
 21
-120.503
  0
LINE
  5
328
100
AcDbEntity
  8
BLACK
  6
CONTINUOUS
 62
  256
370
   -1
100
AcDbLine
 10
112.852
 20
-120.503
 11
112.761
 21
-120.611
  0
LINE
  5
329
100
AcDbEntity
  8
BLACK
  6
CONTINUOUS
 62
  256
370
   -1
100
AcDbLine
 10
112.761
 20
-120.611
 11
112.639
 21
-120.682
  0
LINE
  5
32A
100
AcDbEntity
  8
BLACK
  6
CONTINUOUS
 62
  256
370
   -1
100
AcDbLine
 10
112.639
 20
-120.682
 11
112.5
 21
-120.706
  0
LINE
  5
32B
100
AcDbEntity
  8
BLACK
  6
CONTINUOUS
 62
  256
370
   -1
100
AcDbLine
 10
112.5
 20
-120.706
 11
112.361
 21
-120.682
  0
LINE
  5
32C
100
AcDbEntity
  8
BLACK
  6
CONTINUOUS
 62
  256
370
   -1
100
AcDbLine
 10
112.361
 20
-120.682
 11
112.239
 21
-120.611
  0
LINE
  5
32D
100
AcDbEntity
  8
BLACK
  6
CONTINUOUS
 62
  256
370
   -1
100
AcDbLine
 10
112.239
 20
-120.611
 11
112.148
 21
-120.503
  0
LINE
  5
32E
100
AcDbEntity
  8
BLACK
  6
CONTINUOUS
 62
  256
370
   -1
100
AcDbLine
 10
112.148
 20
-120.503
 11
112.1
 21
-120.371
  0
LINE
  5
32F
100
AcDbEntity
  8
BLACK
  6
CONTINUOUS
 62
  256
370
   -1
100
AcDbLine
 10
112.1
 20
-120.371
 11
112.1
 21
-120.229
  0
LINE
  5
330
100
AcDbEntity
  8
BLACK
  6
CONTINUOUS
 62
  256
370
   -1
100
AcDbLine
 10
112.1
 20
-120.229
 11
112.148
 21
-120.097
  0
LINE
  5
331
100
AcDbEntity
  8
BLACK
  6
CONTINUOUS
 62
  256
370
   -1
100
AcDbLine
 10
112.148
 20
-120.097
 11
112.239
 21
-119.989
  0
LINE
  5
332
100
AcDbEntity
  8
BLACK
  6
CONTINUOUS
 62
  256
370
   -1
100
AcDbLine
 10
112.239
 20
-119.989
 11
112.361
 21
-119.918
  0
LINE
  5
333
100
AcDbEntity
  8
BLACK
  6
CONTINUOUS
 62
  256
370
   -1
100
AcDbLine
 10
112.361
 20
-119.918
 11
112.5
 21
-119.894
  0
LINE
  5
334
100
AcDbEntity
  8
BLACK
  6
CONTINUOUS
 62
  256
370
   -1
100
AcDbLine
 10
112.5
 20
-119.894
 11
112.605
 21
-119.912
  0
LINE
  5
335
100
AcDbEntity
  8
BLACK
  6
CONTINUOUS
 62
  256
370
   -1
100
AcDbLine
 10
112.605
 20
-119.912
 11
114
 21
-118.517
  0
LINE
  5
336
100
AcDbEntity
  8
BLACK
  6
CONTINUOUS
 62
  256
370
   -1
100
AcDbLine
 10
114
 20
-118.517
 11
114
 21
-117.846
  0
LINE
  5
337
100
AcDbEntity
  8
BLACK
  6
CONTINUOUS
 62
  256
370
   -1
100
AcDbLine
 10
114
 20
-117.846
 11
113.939
 21
-117.811
  0
LINE
  5
338
100
AcDbEntity
  8
BLACK
  6
CONTINUOUS
 62
  256
370
   -1
100
AcDbLine
 10
113.939
 20
-117.811
 11
113.848
 21
-117.703
  0
LINE
  5
339
100
AcDbEntity
  8
BLACK
  6
CONTINUOUS
 62
  256
370
   -1
100
AcDbLine
 10
113.848
 20
-117.703
 11
113.8
 21
-117.571
  0
LINE
  5
33A
100
AcDbEntity
  8
BLACK
  6
CONTINUOUS
 62
  256
370
   -1
100
AcDbLine
 10
113.8
 20
-117.571
 11
113.8
 21
-117.429
  0
LINE
  5
33B
100
AcDbEntity
  8
BLACK
  6
CONTINUOUS
 62
  256
370
   -1
100
AcDbLine
 10
113.8
 20
-117.429
 11
113.848
 21
-117.297
  0
LINE
  5
33C
100
AcDbEntity
  8
BLACK
  6
CONTINUOUS
 62
  256
370
   -1
100
AcDbLine
 10
113.848
 20
-117.297
 11
113.939
 21
-117.189
  0
LINE
  5
33D
100
AcDbEntity
  8
BLACK
  6
CONTINUOUS
 62
  256
370
   -1
100
AcDbLine
 10
113.939
 20
-117.189
 11
114.061
 21
-117.118
  0
LINE
  5
33E
100
AcDbEntity
  8
BLACK
  6
CONTINUOUS
 62
  256
370
   -1
100
AcDbLine
 10
114.061
 20
-117.118
 11
114.2
 21
-117.094
  0
LINE
  5
33F
100
AcDbEntity
  8
BLACK
  6
CONTINUOUS
 62
  256
370
   -1
100
AcDbLine
 10
114.2
 20
-117.094
 11
114.339
 21
-117.118
  0
LINE
  5
340
100
AcDbEntity
  8
BLACK
  6
CONTINUOUS
 62
  256
370
   -1
100
AcDbLine
 10
100.895
 20
-118.329
 11
101.155
 21
-118.479
  0
LINE
  5
341
100
AcDbEntity
  8
BLACK
  6
CONTINUOUS
 62
  256
370
   -1
100
AcDbLine
 10
101.155
 20
-118.479
 11
101.347
 21
-118.708
  0
LINE
  5
342
100
AcDbEntity
  8
BLACK
  6
CONTINUOUS
 62
  256
370
   -1
100
AcDbLine
 10
101.347
 20
-118.708
 11
101.45
 21
-118.99
  0
LINE
  5
343
100
AcDbEntity
  8
BLACK
  6
CONTINUOUS
 62
  256
370
   -1
100
AcDbLine
 10
101.45
 20
-118.99
 11
101.45
 21
-119.29
  0
LINE
  5
344
100
AcDbEntity
  8
BLACK
  6
CONTINUOUS
 62
  256
370
   -1
100
AcDbLine
 10
101.45
 20
-119.29
 11
101.347
 21
-119.572
  0
LINE
  5
345
100
AcDbEntity
  8
BLACK
  6
CONTINUOUS
 62
  256
370
   -1
100
AcDbLine
 10
101.347
 20
-119.572
 11
101.155
 21
-119.801
  0
LINE
  5
346
100
AcDbEntity
  8
BLACK
  6
CONTINUOUS
 62
  256
370
   -1
100
AcDbLine
 10
101.155
 20
-119.801
 11
100.895
 21
-119.951
  0
LINE
  5
347
100
AcDbEntity
  8
BLACK
  6
CONTINUOUS
 62
  256
370
   -1
100
AcDbLine
 10
100.895
 20
-119.951
 11
100.674
 21
-119.99
  0
LINE
  5
348
100
AcDbEntity
  8
BLACK
  6
CONTINUOUS
 62
  256
370
   -1
100
AcDbLine
 10
100.674
 20
-119.99
 11
100.526
 21
-119.99
  0
LINE
  5
349
100
AcDbEntity
  8
BLACK
  6
CONTINUOUS
 62
  256
370
   -1
100
AcDbLine
 10
100.526
 20
-119.99
 11
100.305
 21
-119.951
  0
LINE
  5
34A
100
AcDbEntity
  8
BLACK
  6
CONTINUOUS
 62
  256
370
   -1
100
AcDbLine
 10
100.305
 20
-119.951
 11
100.045
 21
-119.801
  0
LINE
  5
34B
100
AcDbEntity
  8
BLACK
  6
CONTINUOUS
 62
  256
370
   -1
100
AcDbLine
 10
100.045
 20
-119.801
 11
99.85250000000001
 21
-119.572
  0
LINE
  5
34C
100
AcDbEntity
  8
BLACK
  6
CONTINUOUS
 62
  256
370
   -1
100
AcDbLine
 10
99.85250000000001
 20
-119.572
 11
99.75
 21
-119.29
  0
LINE
  5
34D
100
AcDbEntity
  8
BLACK
  6
CONTINUOUS
 62
  256
370
   -1
100
AcDbLine
 10
99.75
 20
-119.29
 11
99.75
 21
-118.99
  0
LINE
  5
34E
100
AcDbEntity
  8
BLACK
  6
CONTINUOUS
 62
  256
370
   -1
100
AcDbLine
 10
99.75
 20
-118.99
 11
99.85250000000001
 21
-118.708
  0
LINE
  5
34F
100
AcDbEntity
  8
BLACK
  6
CONTINUOUS
 62
  256
370
   -1
100
AcDbLine
 10
99.85250000000001
 20
-118.708
 11
100.045
 21
-118.479
  0
LINE
  5
350
100
AcDbEntity
  8
BLACK
  6
CONTINUOUS
 62
  256
370
   -1
100
AcDbLine
 10
100.045
 20
-118.479
 11
100.305
 21
-118.329
  0
LINE
  5
351
100
AcDbEntity
  8
BLACK
  6
CONTINUOUS
 62
  256
370
   -1
100
AcDbLine
 10
100.305
 20
-118.329
 11
100.526
 21
-118.29
  0
LINE
  5
352
100
AcDbEntity
  8
BLACK
  6
CONTINUOUS
 62
  256
370
   -1
100
AcDbLine
 10
100.526
 20
-118.29
 11
100.674
 21
-118.29
  0
LINE
  5
353
100
AcDbEntity
  8
BLACK
  6
CONTINUOUS
 62
  256
370
   -1
100
AcDbLine
 10
100.674
 20
-118.29
 11
100.895
 21
-118.329
  0
LINE
  5
354
100
AcDbEntity
  8
BLACK
  6
CONTINUOUS
 62
  256
370
   -1
100
AcDbLine
 10
109.195
 20
-118.329
 11
109.455
 21
-118.479
  0
LINE
  5
355
100
AcDbEntity
  8
BLACK
  6
CONTINUOUS
 62
  256
370
   -1
100
AcDbLine
 10
109.455
 20
-118.479
 11
109.647
 21
-118.708
  0
LINE
  5
356
100
AcDbEntity
  8
BLACK
  6
CONTINUOUS
 62
  256
370
   -1
100
AcDbLine
 10
109.647
 20
-118.708
 11
109.75
 21
-118.99
  0
LINE
  5
357
100
AcDbEntity
  8
BLACK
  6
CONTINUOUS
 62
  256
370
   -1
100
AcDbLine
 10
109.75
 20
-118.99
 11
109.75
 21
-119.29
  0
LINE
  5
358
100
AcDbEntity
  8
BLACK
  6
CONTINUOUS
 62
  256
370
   -1
100
AcDbLine
 10
109.75
 20
-119.29
 11
109.647
 21
-119.572
  0
LINE
  5
359
100
AcDbEntity
  8
BLACK
  6
CONTINUOUS
 62
  256
370
   -1
100
AcDbLine
 10
109.647
 20
-119.572
 11
109.455
 21
-119.801
  0
LINE
  5
35A
100
AcDbEntity
  8
BLACK
  6
CONTINUOUS
 62
  256
370
   -1
100
AcDbLine
 10
109.455
 20
-119.801
 11
109.195
 21
-119.951
  0
LINE
  5
35B
100
AcDbEntity
  8
BLACK
  6
CONTINUOUS
 62
  256
370
   -1
100
AcDbLine
 10
109.195
 20
-119.951
 11
108.974
 21
-119.99
  0
LINE
  5
35C
100
AcDbEntity
  8
BLACK
  6
CONTINUOUS
 62
  256
370
   -1
100
AcDbLine
 10
108.974
 20
-119.99
 11
108.826
 21
-119.99
  0
LINE
  5
35D
100
AcDbEntity
  8
BLACK
  6
CONTINUOUS
 62
  256
370
   -1
100
AcDbLine
 10
108.826
 20
-119.99
 11
108.605
 21
-119.951
  0
LINE
  5
35E
100
AcDbEntity
  8
BLACK
  6
CONTINUOUS
 62
  256
370
   -1
100
AcDbLine
 10
108.605
 20
-119.951
 11
108.345
 21
-119.801
  0
LINE
  5
35F
100
AcDbEntity
  8
BLACK
  6
CONTINUOUS
 62
  256
370
   -1
100
AcDbLine
 10
108.345
 20
-119.801
 11
108.153
 21
-119.572
  0
LINE
  5
360
100
AcDbEntity
  8
BLACK
  6
CONTINUOUS
 62
  256
370
   -1
100
AcDbLine
 10
108.153
 20
-119.572
 11
108.05
 21
-119.29
  0
LINE
  5
361
100
AcDbEntity
  8
BLACK
  6
CONTINUOUS
 62
  256
370
   -1
100
AcDbLine
 10
108.05
 20
-119.29
 11
108.05
 21
-118.99
  0
LINE
  5
362
100
AcDbEntity
  8
BLACK
  6
CONTINUOUS
 62
  256
370
   -1
100
AcDbLine
 10
108.05
 20
-118.99
 11
108.153
 21
-118.708
  0
LINE
  5
363
100
AcDbEntity
  8
BLACK
  6
CONTINUOUS
 62
  256
370
   -1
100
AcDbLine
 10
108.153
 20
-118.708
 11
108.345
 21
-118.479
  0
LINE
  5
364
100
AcDbEntity
  8
BLACK
  6
CONTINUOUS
 62
  256
370
   -1
100
AcDbLine
 10
108.345
 20
-118.479
 11
108.605
 21
-118.329
  0
LINE
  5
365
100
AcDbEntity
  8
BLACK
  6
CONTINUOUS
 62
  256
370
   -1
100
AcDbLine
 10
108.605
 20
-118.329
 11
108.826
 21
-118.29
  0
LINE
  5
366
100
AcDbEntity
  8
BLACK
  6
CONTINUOUS
 62
  256
370
   -1
100
AcDbLine
 10
108.826
 20
-118.29
 11
108.974
 21
-118.29
  0
LINE
  5
367
100
AcDbEntity
  8
BLACK
  6
CONTINUOUS
 62
  256
370
   -1
100
AcDbLine
 10
108.974
 20
-118.29
 11
109.195
 21
-118.329
  0
LINE
  5
368
100
AcDbEntity
  8
BLACK
  6
CONTINUOUS
 62
  256
370
   -1
100
AcDbLine
 10
153.513
 20
-117.097
 11
153.787
 21
-117.256
  0
LINE
  5
369
100
AcDbEntity
  8
BLACK
  6
CONTINUOUS
 62
  256
370
   -1
100
AcDbLine
 10
153.787
 20
-117.256
 11
153.991
 21
-117.499
  0
LINE
  5
36A
100
AcDbEntity
  8
BLACK
  6
CONTINUOUS
 62
  256
370
   -1
100
AcDbLine
 10
153.991
 20
-117.499
 11
154.1
 21
-117.797
  0
LINE
  5
36B
100
AcDbEntity
  8
BLACK
  6
CONTINUOUS
 62
  256
370
   -1
100
AcDbLine
 10
154.1
 20
-117.797
 11
154.1
 21
-118.115
  0
LINE
  5
36C
100
AcDbEntity
  8
BLACK
  6
CONTINUOUS
 62
  256
370
   -1
100
AcDbLine
 10
154.1
 20
-118.115
 11
153.991
 21
-118.413
  0
LINE
  5
36D
100
AcDbEntity
  8
BLACK
  6
CONTINUOUS
 62
  256
370
   -1
100
AcDbLine
 10
153.991
 20
-118.413
 11
153.787
 21
-118.656
  0
LINE
  5
36E
100
AcDbEntity
  8
BLACK
  6
CONTINUOUS
 62
  256
370
   -1
100
AcDbLine
 10
153.787
 20
-118.656
 11
153.513
 21
-118.815
  0
LINE
  5
36F
100
AcDbEntity
  8
BLACK
  6
CONTINUOUS
 62
  256
370
   -1
100
AcDbLine
 10
153.513
 20
-118.815
 11
153.2
 21
-118.87
  0
LINE
  5
370
100
AcDbEntity
  8
BLACK
  6
CONTINUOUS
 62
  256
370
   -1
100
AcDbLine
 10
153.2
 20
-118.87
 11
152.887
 21
-118.815
  0
LINE
  5
371
100
AcDbEntity
  8
BLACK
  6
CONTINUOUS
 62
  256
370
   -1
100
AcDbLine
 10
152.887
 20
-118.815
 11
152.613
 21
-118.656
  0
LINE
  5
372
100
AcDbEntity
  8
BLACK
  6
CONTINUOUS
 62
  256
370
   -1
100
AcDbLine
 10
152.613
 20
-118.656
 11
152.409
 21
-118.413
  0
LINE
  5
373
100
AcDbEntity
  8
BLACK
  6
CONTINUOUS
 62
  256
370
   -1
100
AcDbLine
 10
152.409
 20
-118.413
 11
152.3
 21
-118.115
  0
LINE
  5
374
100
AcDbEntity
  8
BLACK
  6
CONTINUOUS
 62
  256
370
   -1
100
AcDbLine
 10
152.3
 20
-118.115
 11
152.3
 21
-117.797
  0
LINE
  5
375
100
AcDbEntity
  8
BLACK
  6
CONTINUOUS
 62
  256
370
   -1
100
AcDbLine
 10
152.3
 20
-117.797
 11
152.409
 21
-117.499
  0
LINE
  5
376
100
AcDbEntity
  8
BLACK
  6
CONTINUOUS
 62
  256
370
   -1
100
AcDbLine
 10
152.409
 20
-117.499
 11
152.613
 21
-117.256
  0
LINE
  5
377
100
AcDbEntity
  8
BLACK
  6
CONTINUOUS
 62
  256
370
   -1
100
AcDbLine
 10
152.613
 20
-117.256
 11
152.887
 21
-117.097
  0
LINE
  5
378
100
AcDbEntity
  8
BLACK
  6
CONTINUOUS
 62
  256
370
   -1
100
AcDbLine
 10
152.887
 20
-117.097
 11
153.2
 21
-117.042
  0
LINE
  5
379
100
AcDbEntity
  8
BLACK
  6
CONTINUOUS
 62
  256
370
   -1
100
AcDbLine
 10
153.2
 20
-117.042
 11
153.513
 21
-117.097
  0
LINE
  5
37A
100
AcDbEntity
  8
BLACK
  6
CONTINUOUS
 62
  256
370
   -1
100
AcDbLine
 10
105.413
 20
-117.097
 11
105.687
 21
-117.256
  0
LINE
  5
37B
100
AcDbEntity
  8
BLACK
  6
CONTINUOUS
 62
  256
370
   -1
100
AcDbLine
 10
105.687
 20
-117.256
 11
105.891
 21
-117.499
  0
LINE
  5
37C
100
AcDbEntity
  8
BLACK
  6
CONTINUOUS
 62
  256
370
   -1
100
AcDbLine
 10
105.891
 20
-117.499
 11
106
 21
-117.797
  0
LINE
  5
37D
100
AcDbEntity
  8
BLACK
  6
CONTINUOUS
 62
  256
370
   -1
100
AcDbLine
 10
106
 20
-117.797
 11
106
 21
-118.115
  0
LINE
  5
37E
100
AcDbEntity
  8
BLACK
  6
CONTINUOUS
 62
  256
370
   -1
100
AcDbLine
 10
106
 20
-118.115
 11
105.891
 21
-118.413
  0
LINE
  5
37F
100
AcDbEntity
  8
BLACK
  6
CONTINUOUS
 62
  256
370
   -1
100
AcDbLine
 10
105.891
 20
-118.413
 11
105.687
 21
-118.656
  0
LINE
  5
380
100
AcDbEntity
  8
BLACK
  6
CONTINUOUS
 62
  256
370
   -1
100
AcDbLine
 10
105.687
 20
-118.656
 11
105.413
 21
-118.815
  0
LINE
  5
381
100
AcDbEntity
  8
BLACK
  6
CONTINUOUS
 62
  256
370
   -1
100
AcDbLine
 10
105.413
 20
-118.815
 11
105.1
 21
-118.87
  0
LINE
  5
382
100
AcDbEntity
  8
BLACK
  6
CONTINUOUS
 62
  256
370
   -1
100
AcDbLine
 10
105.1
 20
-118.87
 11
104.787
 21
-118.815
  0
LINE
  5
383
100
AcDbEntity
  8
BLACK
  6
CONTINUOUS
 62
  256
370
   -1
100
AcDbLine
 10
104.787
 20
-118.815
 11
104.513
 21
-118.656
  0
LINE
  5
384
100
AcDbEntity
  8
BLACK
  6
CONTINUOUS
 62
  256
370
   -1
100
AcDbLine
 10
104.513
 20
-118.656
 11
104.309
 21
-118.413
  0
LINE
  5
385
100
AcDbEntity
  8
BLACK
  6
CONTINUOUS
 62
  256
370
   -1
100
AcDbLine
 10
104.309
 20
-118.413
 11
104.2
 21
-118.115
  0
LINE
  5
386
100
AcDbEntity
  8
BLACK
  6
CONTINUOUS
 62
  256
370
   -1
100
AcDbLine
 10
104.2
 20
-118.115
 11
104.2
 21
-117.797
  0
LINE
  5
387
100
AcDbEntity
  8
BLACK
  6
CONTINUOUS
 62
  256
370
   -1
100
AcDbLine
 10
104.2
 20
-117.797
 11
104.309
 21
-117.499
  0
LINE
  5
388
100
AcDbEntity
  8
BLACK
  6
CONTINUOUS
 62
  256
370
   -1
100
AcDbLine
 10
104.309
 20
-117.499
 11
104.513
 21
-117.256
  0
LINE
  5
389
100
AcDbEntity
  8
BLACK
  6
CONTINUOUS
 62
  256
370
   -1
100
AcDbLine
 10
104.513
 20
-117.256
 11
104.787
 21
-117.097
  0
LINE
  5
38A
100
AcDbEntity
  8
BLACK
  6
CONTINUOUS
 62
  256
370
   -1
100
AcDbLine
 10
104.787
 20
-117.097
 11
105.1
 21
-117.042
  0
LINE
  5
38B
100
AcDbEntity
  8
BLACK
  6
CONTINUOUS
 62
  256
370
   -1
100
AcDbLine
 10
105.1
 20
-117.042
 11
105.413
 21
-117.097
  0
LINE
  5
38C
100
AcDbEntity
  8
BLACK
  6
CONTINUOUS
 62
  256
370
   -1
100
AcDbLine
 10
109.75
 20
-117.45
 11
108.05
 21
-117.45
  0
LINE
  5
38D
100
AcDbEntity
  8
BLACK
  6
CONTINUOUS
 62
  256
370
   -1
100
AcDbLine
 10
108.05
 20
-117.45
 11
108.05
 21
-115.75
  0
LINE
  5
38E
100
AcDbEntity
  8
BLACK
  6
CONTINUOUS
 62
  256
370
   -1
100
AcDbLine
 10
108.05
 20
-115.75
 11
109.75
 21
-115.75
  0
LINE
  5
38F
100
AcDbEntity
  8
BLACK
  6
CONTINUOUS
 62
  256
370
   -1
100
AcDbLine
 10
109.75
 20
-115.75
 11
109.75
 21
-117.45
  0
LINE
  5
390
100
AcDbEntity
  8
BLACK
  6
CONTINUOUS
 62
  256
370
   -1
100
AcDbLine
 10
101.45
 20
-117.45
 11
99.75
 21
-117.45
  0
LINE
  5
391
100
AcDbEntity
  8
BLACK
  6
CONTINUOUS
 62
  256
370
   -1
100
AcDbLine
 10
99.75
 20
-117.45
 11
99.75
 21
-115.75
  0
LINE
  5
392
100
AcDbEntity
  8
BLACK
  6
CONTINUOUS
 62
  256
370
   -1
100
AcDbLine
 10
99.75
 20
-115.75
 11
101.45
 21
-115.75
  0
LINE
  5
393
100
AcDbEntity
  8
BLACK
  6
CONTINUOUS
 62
  256
370
   -1
100
AcDbLine
 10
101.45
 20
-115.75
 11
101.45
 21
-117.45
  0
LINE
  5
394
100
AcDbEntity
  8
BLACK
  6
CONTINUOUS
 62
  256
370
   -1
100
AcDbLine
 10
103.8
 20
-92.7744
 11
103.922
 21
-92.8449
  0
LINE
  5
395
100
AcDbEntity
  8
BLACK
  6
CONTINUOUS
 62
  256
370
   -1
100
AcDbLine
 10
103.922
 20
-92.8449
 11
104.012
 21
-92.953
  0
LINE
  5
396
100
AcDbEntity
  8
BLACK
  6
CONTINUOUS
 62
  256
370
   -1
100
AcDbLine
 10
104.012
 20
-92.953
 11
104.061
 21
-93.0855
  0
LINE
  5
397
100
AcDbEntity
  8
BLACK
  6
CONTINUOUS
 62
  256
370
   -1
100
AcDbLine
 10
104.061
 20
-93.0855
 11
104.061
 21
-93.2266
  0
LINE
  5
398
100
AcDbEntity
  8
BLACK
  6
CONTINUOUS
 62
  256
370
   -1
100
AcDbLine
 10
104.061
 20
-93.2266
 11
104.012
 21
-93.3591
  0
LINE
  5
399
100
AcDbEntity
  8
BLACK
  6
CONTINUOUS
 62
  256
370
   -1
100
AcDbLine
 10
104.012
 20
-93.3591
 11
103.922
 21
-93.46720000000001
  0
LINE
  5
39A
100
AcDbEntity
  8
BLACK
  6
CONTINUOUS
 62
  256
370
   -1
100
AcDbLine
 10
103.922
 20
-93.46720000000001
 11
103.811
 21
-93.5313
  0
LINE
  5
39B
100
AcDbEntity
  8
BLACK
  6
CONTINUOUS
 62
  256
370
   -1
100
AcDbLine
 10
103.811
 20
-93.5313
 11
103.811
 21
-93.79940000000001
  0
LINE
  5
39C
100
AcDbEntity
  8
BLACK
  6
CONTINUOUS
 62
  256
370
   -1
100
AcDbLine
 10
103.811
 20
-93.79940000000001
 11
103.812
 21
-93.8192
  0
LINE
  5
39D
100
AcDbEntity
  8
BLACK
  6
CONTINUOUS
 62
  256
370
   -1
100
AcDbLine
 10
103.812
 20
-93.8192
 11
103.807
 21
-93.83839999999999
  0
LINE
  5
39E
100
AcDbEntity
  8
BLACK
  6
CONTINUOUS
 62
  256
370
   -1
100
AcDbLine
 10
103.807
 20
-93.83839999999999
 11
103.804
 21
-93.858
  0
LINE
  5
39F
100
AcDbEntity
  8
BLACK
  6
CONTINUOUS
 62
  256
370
   -1
100
AcDbLine
 10
103.804
 20
-93.858
 11
103.8
 21
-93.8638
  0
LINE
  5
3A0
100
AcDbEntity
  8
BLACK
  6
CONTINUOUS
 62
  256
370
   -1
100
AcDbLine
 10
103.8
 20
-93.8638
 11
103.799
 21
-93.8703
  0
LINE
  5
3A1
100
AcDbEntity
  8
BLACK
  6
CONTINUOUS
 62
  256
370
   -1
100
AcDbLine
 10
103.799
 20
-93.8703
 11
103.787
 21
-93.8866
  0
LINE
  5
3A2
100
AcDbEntity
  8
BLACK
  6
CONTINUOUS
 62
  256
370
   -1
100
AcDbLine
 10
103.787
 20
-93.8866
 11
103.777
 21
-93.9038
  0
LINE
  5
3A3
100
AcDbEntity
  8
BLACK
  6
CONTINUOUS
 62
  256
370
   -1
100
AcDbLine
 10
103.777
 20
-93.9038
 11
103.762
 21
-93.9166
  0
LINE
  5
3A4
100
AcDbEntity
  8
BLACK
  6
CONTINUOUS
 62
  256
370
   -1
100
AcDbLine
 10
103.762
 20
-93.9166
 11
103.688
 21
-93.9907
  0
LINE
  5
3A5
100
AcDbEntity
  8
BLACK
  6
CONTINUOUS
 62
  256
370
   -1
100
AcDbLine
 10
103.688
 20
-93.9907
 11
103.688
 21
-95.6555
  0
LINE
  5
3A6
100
AcDbEntity
  8
BLACK
  6
CONTINUOUS
 62
  256
370
   -1
100
AcDbLine
 10
103.688
 20
-95.6555
 11
103.69
 21
-95.67529999999999
  0
LINE
  5
3A7
100
AcDbEntity
  8
BLACK
  6
CONTINUOUS
 62
  256
370
   -1
100
AcDbLine
 10
103.69
 20
-95.67529999999999
 11
103.685
 21
-95.69450000000001
  0
LINE
  5
3A8
100
AcDbEntity
  8
BLACK
  6
CONTINUOUS
 62
  256
370
   -1
100
AcDbLine
 10
103.685
 20
-95.69450000000001
 11
103.681
 21
-95.7141
  0
LINE
  5
3A9
100
AcDbEntity
  8
BLACK
  6
CONTINUOUS
 62
  256
370
   -1
100
AcDbLine
 10
103.681
 20
-95.7141
 11
103.678
 21
-95.7199
  0
LINE
  5
3AA
100
AcDbEntity
  8
BLACK
  6
CONTINUOUS
 62
  256
370
   -1
100
AcDbLine
 10
103.678
 20
-95.7199
 11
103.676
 21
-95.7264
  0
LINE
  5
3AB
100
AcDbEntity
  8
BLACK
  6
CONTINUOUS
 62
  256
370
   -1
100
AcDbLine
 10
103.676
 20
-95.7264
 11
103.665
 21
-95.7427
  0
LINE
  5
3AC
100
AcDbEntity
  8
BLACK
  6
CONTINUOUS
 62
  256
370
   -1
100
AcDbLine
 10
103.665
 20
-95.7427
 11
103.655
 21
-95.7599
  0
LINE
  5
3AD
100
AcDbEntity
  8
BLACK
  6
CONTINUOUS
 62
  256
370
   -1
100
AcDbLine
 10
103.655
 20
-95.7599
 11
103.639
 21
-95.7727
  0
LINE
  5
3AE
100
AcDbEntity
  8
BLACK
  6
CONTINUOUS
 62
  256
370
   -1
100
AcDbLine
 10
103.639
 20
-95.7727
 11
103.349
 21
-96.06270000000001
  0
LINE
  5
3AF
100
AcDbEntity
  8
BLACK
  6
CONTINUOUS
 62
  256
370
   -1
100
AcDbLine
 10
103.349
 20
-96.06270000000001
 11
103.349
 21
-98.6387
  0
LINE
  5
3B0
100
AcDbEntity
  8
BLACK
  6
CONTINUOUS
 62
  256
370
   -1
100
AcDbLine
 10
103.349
 20
-98.6387
 11
103.701
 21
-98.9907
  0
LINE
  5
3B1
100
AcDbEntity
  8
BLACK
  6
CONTINUOUS
 62
  256
370
   -1
100
AcDbLine
 10
103.701
 20
-98.9907
 11
103.717
 21
-99.0035
  0
LINE
  5
3B2
100
AcDbEntity
  8
BLACK
  6
CONTINUOUS
 62
  256
370
   -1
100
AcDbLine
 10
103.717
 20
-99.0035
 11
103.727
 21
-99.02079999999999
  0
LINE
  5
3B3
100
AcDbEntity
  8
BLACK
  6
CONTINUOUS
 62
  256
370
   -1
100
AcDbLine
 10
103.727
 20
-99.02079999999999
 11
103.738
 21
-99.0371
  0
LINE
  5
3B4
100
AcDbEntity
  8
BLACK
  6
CONTINUOUS
 62
  256
370
   -1
100
AcDbLine
 10
103.738
 20
-99.0371
 11
103.74
 21
-99.04349999999999
  0
LINE
  5
3B5
100
AcDbEntity
  8
BLACK
  6
CONTINUOUS
 62
  256
370
   -1
100
AcDbLine
 10
103.74
 20
-99.04349999999999
 11
103.743
 21
-99.0493
  0
LINE
  5
3B6
100
AcDbEntity
  8
BLACK
  6
CONTINUOUS
 62
  256
370
   -1
100
AcDbLine
 10
103.743
 20
-99.0493
 11
103.747
 21
-99.0689
  0
LINE
  5
3B7
100
AcDbEntity
  8
BLACK
  6
CONTINUOUS
 62
  256
370
   -1
100
AcDbLine
 10
103.747
 20
-99.0689
 11
103.752
 21
-99.0882
  0
LINE
  5
3B8
100
AcDbEntity
  8
BLACK
  6
CONTINUOUS
 62
  256
370
   -1
100
AcDbLine
 10
103.752
 20
-99.0882
 11
103.75
 21
-99.108
  0
LINE
  5
3B9
100
AcDbEntity
  8
BLACK
  6
CONTINUOUS
 62
  256
370
   -1
100
AcDbLine
 10
103.75
 20
-99.108
 11
103.75
 21
-111.126
  0
LINE
  5
3BA
100
AcDbEntity
  8
BLACK
  6
CONTINUOUS
 62
  256
370
   -1
100
AcDbLine
 10
103.75
 20
-111.126
 11
103.752
 21
-111.133
  0
LINE
  5
3BB
100
AcDbEntity
  8
BLACK
  6
CONTINUOUS
 62
  256
370
   -1
100
AcDbLine
 10
103.752
 20
-111.133
 11
103.75
 21
-111.153
  0
LINE
  5
3BC
100
AcDbEntity
  8
BLACK
  6
CONTINUOUS
 62
  256
370
   -1
100
AcDbLine
 10
103.75
 20
-111.153
 11
103.75
 21
-111.637
  0
LINE
  5
3BD
100
AcDbEntity
  8
BLACK
  6
CONTINUOUS
 62
  256
370
   -1
100
AcDbLine
 10
103.75
 20
-111.637
 11
103.752
 21
-111.656
  0
LINE
  5
3BE
100
AcDbEntity
  8
BLACK
  6
CONTINUOUS
 62
  256
370
   -1
100
AcDbLine
 10
103.752
 20
-111.656
 11
103.747
 21
-111.676
  0
LINE
  5
3BF
100
AcDbEntity
  8
BLACK
  6
CONTINUOUS
 62
  256
370
   -1
100
AcDbLine
 10
103.747
 20
-111.676
 11
103.743
 21
-111.695
  0
LINE
  5
3C0
100
AcDbEntity
  8
BLACK
  6
CONTINUOUS
 62
  256
370
   -1
100
AcDbLine
 10
103.743
 20
-111.695
 11
103.74
 21
-111.701
  0
LINE
  5
3C1
100
AcDbEntity
  8
BLACK
  6
CONTINUOUS
 62
  256
370
   -1
100
AcDbLine
 10
103.74
 20
-111.701
 11
103.738
 21
-111.708
  0
LINE
  5
3C2
100
AcDbEntity
  8
BLACK
  6
CONTINUOUS
 62
  256
370
   -1
100
AcDbLine
 10
103.738
 20
-111.708
 11
103.727
 21
-111.724
  0
LINE
  5
3C3
100
AcDbEntity
  8
BLACK
  6
CONTINUOUS
 62
  256
370
   -1
100
AcDbLine
 10
103.727
 20
-111.724
 11
103.717
 21
-111.741
  0
LINE
  5
3C4
100
AcDbEntity
  8
BLACK
  6
CONTINUOUS
 62
  256
370
   -1
100
AcDbLine
 10
103.717
 20
-111.741
 11
103.701
 21
-111.754
  0
LINE
  5
3C5
100
AcDbEntity
  8
BLACK
  6
CONTINUOUS
 62
  256
370
   -1
100
AcDbLine
 10
103.701
 20
-111.754
 11
103.615
 21
-111.84
  0
LINE
  5
3C6
100
AcDbEntity
  8
BLACK
  6
CONTINUOUS
 62
  256
370
   -1
100
AcDbLine
 10
103.615
 20
-111.84
 11
103.615
 21
-111.84
  0
LINE
  5
3C7
100
AcDbEntity
  8
BLACK
  6
CONTINUOUS
 62
  256
370
   -1
100
AcDbLine
 10
103.615
 20
-111.84
 11
103.35
 21
-112.105
  0
LINE
  5
3C8
100
AcDbEntity
  8
BLACK
  6
CONTINUOUS
 62
  256
370
   -1
100
AcDbLine
 10
103.35
 20
-112.105
 11
103.35
 21
-115.115
  0
LINE
  5
3C9
100
AcDbEntity
  8
BLACK
  6
CONTINUOUS
 62
  256
370
   -1
100
AcDbLine
 10
103.35
 20
-115.115
 11
104.093
 21
-115.859
  0
LINE
  5
3CA
100
AcDbEntity
  8
BLACK
  6
CONTINUOUS
 62
  256
370
   -1
100
AcDbLine
 10
104.093
 20
-115.859
 11
104.109
 21
-115.871
  0
LINE
  5
3CB
100
AcDbEntity
  8
BLACK
  6
CONTINUOUS
 62
  256
370
   -1
100
AcDbLine
 10
104.109
 20
-115.871
 11
104.119
 21
-115.889
  0
LINE
  5
3CC
100
AcDbEntity
  8
BLACK
  6
CONTINUOUS
 62
  256
370
   -1
100
AcDbLine
 10
104.119
 20
-115.889
 11
104.13
 21
-115.905
  0
LINE
  5
3CD
100
AcDbEntity
  8
BLACK
  6
CONTINUOUS
 62
  256
370
   -1
100
AcDbLine
 10
104.13
 20
-115.905
 11
104.132
 21
-115.911
  0
LINE
  5
3CE
100
AcDbEntity
  8
BLACK
  6
CONTINUOUS
 62
  256
370
   -1
100
AcDbLine
 10
104.132
 20
-115.911
 11
104.135
 21
-115.917
  0
LINE
  5
3CF
100
AcDbEntity
  8
BLACK
  6
CONTINUOUS
 62
  256
370
   -1
100
AcDbLine
 10
104.135
 20
-115.917
 11
104.139
 21
-115.937
  0
LINE
  5
3D0
100
AcDbEntity
  8
BLACK
  6
CONTINUOUS
 62
  256
370
   -1
100
AcDbLine
 10
104.139
 20
-115.937
 11
104.144
 21
-115.956
  0
LINE
  5
3D1
100
AcDbEntity
  8
BLACK
  6
CONTINUOUS
 62
  256
370
   -1
100
AcDbLine
 10
104.144
 20
-115.956
 11
104.142
 21
-115.976
  0
LINE
  5
3D2
100
AcDbEntity
  8
BLACK
  6
CONTINUOUS
 62
  256
370
   -1
100
AcDbLine
 10
104.142
 20
-115.976
 11
104.142
 21
-116.16
  0
LINE
  5
3D3
100
AcDbEntity
  8
BLACK
  6
CONTINUOUS
 62
  256
370
   -1
100
AcDbLine
 10
104.142
 20
-116.16
 11
104.253
 21
-116.224
  0
LINE
  5
3D4
100
AcDbEntity
  8
BLACK
  6
CONTINUOUS
 62
  256
370
   -1
100
AcDbLine
 10
104.253
 20
-116.224
 11
104.344
 21
-116.332
  0
LINE
  5
3D5
100
AcDbEntity
  8
BLACK
  6
CONTINUOUS
 62
  256
370
   -1
100
AcDbLine
 10
104.344
 20
-116.332
 11
104.392
 21
-116.464
  0
LINE
  5
3D6
100
AcDbEntity
  8
BLACK
  6
CONTINUOUS
 62
  256
370
   -1
100
AcDbLine
 10
104.392
 20
-116.464
 11
104.392
 21
-116.605
  0
LINE
  5
3D7
100
AcDbEntity
  8
BLACK
  6
CONTINUOUS
 62
  256
370
   -1
100
AcDbLine
 10
104.392
 20
-116.605
 11
104.344
 21
-116.738
  0
LINE
  5
3D8
100
AcDbEntity
  8
BLACK
  6
CONTINUOUS
 62
  256
370
   -1
100
AcDbLine
 10
104.344
 20
-116.738
 11
104.253
 21
-116.846
  0
LINE
  5
3D9
100
AcDbEntity
  8
BLACK
  6
CONTINUOUS
 62
  256
370
   -1
100
AcDbLine
 10
104.253
 20
-116.846
 11
104.131
 21
-116.917
  0
LINE
  5
3DA
100
AcDbEntity
  8
BLACK
  6
CONTINUOUS
 62
  256
370
   -1
100
AcDbLine
 10
104.131
 20
-116.917
 11
103.992
 21
-116.941
  0
LINE
  5
3DB
100
AcDbEntity
  8
BLACK
  6
CONTINUOUS
 62
  256
370
   -1
100
AcDbLine
 10
103.992
 20
-116.941
 11
103.853
 21
-116.917
  0
LINE
  5
3DC
100
AcDbEntity
  8
BLACK
  6
CONTINUOUS
 62
  256
370
   -1
100
AcDbLine
 10
103.853
 20
-116.917
 11
103.731
 21
-116.846
  0
LINE
  5
3DD
100
AcDbEntity
  8
BLACK
  6
CONTINUOUS
 62
  256
370
   -1
100
AcDbLine
 10
103.731
 20
-116.846
 11
103.64
 21
-116.738
  0
LINE
  5
3DE
100
AcDbEntity
  8
BLACK
  6
CONTINUOUS
 62
  256
370
   -1
100
AcDbLine
 10
103.64
 20
-116.738
 11
103.592
 21
-116.605
  0
LINE
  5
3DF
100
AcDbEntity
  8
BLACK
  6
CONTINUOUS
 62
  256
370
   -1
100
AcDbLine
 10
103.592
 20
-116.605
 11
103.592
 21
-116.464
  0
LINE
  5
3E0
100
AcDbEntity
  8
BLACK
  6
CONTINUOUS
 62
  256
370
   -1
100
AcDbLine
 10
103.592
 20
-116.464
 11
103.64
 21
-116.332
  0
LINE
  5
3E1
100
AcDbEntity
  8
BLACK
  6
CONTINUOUS
 62
  256
370
   -1
100
AcDbLine
 10
103.64
 20
-116.332
 11
103.731
 21
-116.224
  0
LINE
  5
3E2
100
AcDbEntity
  8
BLACK
  6
CONTINUOUS
 62
  256
370
   -1
100
AcDbLine
 10
103.731
 20
-116.224
 11
103.842
 21
-116.16
  0
LINE
  5
3E3
100
AcDbEntity
  8
BLACK
  6
CONTINUOUS
 62
  256
370
   -1
100
AcDbLine
 10
103.842
 20
-116.16
 11
103.842
 21
-116.031
  0
LINE
  5
3E4
100
AcDbEntity
  8
BLACK
  6
CONTINUOUS
 62
  256
370
   -1
100
AcDbLine
 10
103.842
 20
-116.031
 11
103.099
 21
-115.288
  0
LINE
  5
3E5
100
AcDbEntity
  8
BLACK
  6
CONTINUOUS
 62
  256
370
   -1
100
AcDbLine
 10
103.099
 20
-115.288
 11
103.083
 21
-115.275
  0
LINE
  5
3E6
100
AcDbEntity
  8
BLACK
  6
CONTINUOUS
 62
  256
370
   -1
100
AcDbLine
 10
103.083
 20
-115.275
 11
103.073
 21
-115.258
  0
LINE
  5
3E7
100
AcDbEntity
  8
BLACK
  6
CONTINUOUS
 62
  256
370
   -1
100
AcDbLine
 10
103.073
 20
-115.258
 11
103.062
 21
-115.242
  0
LINE
  5
3E8
100
AcDbEntity
  8
BLACK
  6
CONTINUOUS
 62
  256
370
   -1
100
AcDbLine
 10
103.062
 20
-115.242
 11
103.06
 21
-115.235
  0
LINE
  5
3E9
100
AcDbEntity
  8
BLACK
  6
CONTINUOUS
 62
  256
370
   -1
100
AcDbLine
 10
103.06
 20
-115.235
 11
103.057
 21
-115.229
  0
LINE
  5
3EA
100
AcDbEntity
  8
BLACK
  6
CONTINUOUS
 62
  256
370
   -1
100
AcDbLine
 10
103.057
 20
-115.229
 11
103.053
 21
-115.21
  0
LINE
  5
3EB
100
AcDbEntity
  8
BLACK
  6
CONTINUOUS
 62
  256
370
   -1
100
AcDbLine
 10
103.053
 20
-115.21
 11
103.048
 21
-115.191
  0
LINE
  5
3EC
100
AcDbEntity
  8
BLACK
  6
CONTINUOUS
 62
  256
370
   -1
100
AcDbLine
 10
103.048
 20
-115.191
 11
103.05
 21
-115.171
  0
LINE
  5
3ED
100
AcDbEntity
  8
BLACK
  6
CONTINUOUS
 62
  256
370
   -1
100
AcDbLine
 10
103.05
 20
-115.171
 11
103.05
 21
-112.05
  0
LINE
  5
3EE
100
AcDbEntity
  8
BLACK
  6
CONTINUOUS
 62
  256
370
   -1
100
AcDbLine
 10
103.05
 20
-112.05
 11
103.048
 21
-112.03
  0
LINE
  5
3EF
100
AcDbEntity
  8
BLACK
  6
CONTINUOUS
 62
  256
370
   -1
100
AcDbLine
 10
103.048
 20
-112.03
 11
103.053
 21
-112.011
  0
LINE
  5
3F0
100
AcDbEntity
  8
BLACK
  6
CONTINUOUS
 62
  256
370
   -1
100
AcDbLine
 10
103.053
 20
-112.011
 11
103.057
 21
-111.991
  0
LINE
  5
3F1
100
AcDbEntity
  8
BLACK
  6
CONTINUOUS
 62
  256
370
   -1
100
AcDbLine
 10
103.057
 20
-111.991
 11
103.06
 21
-111.985
  0
LINE
  5
3F2
100
AcDbEntity
  8
BLACK
  6
CONTINUOUS
 62
  256
370
   -1
100
AcDbLine
 10
103.06
 20
-111.985
 11
103.062
 21
-111.979
  0
LINE
  5
3F3
100
AcDbEntity
  8
BLACK
  6
CONTINUOUS
 62
  256
370
   -1
100
AcDbLine
 10
103.062
 20
-111.979
 11
103.073
 21
-111.963
  0
LINE
  5
3F4
100
AcDbEntity
  8
BLACK
  6
CONTINUOUS
 62
  256
370
   -1
100
AcDbLine
 10
103.073
 20
-111.963
 11
103.083
 21
-111.945
  0
LINE
  5
3F5
100
AcDbEntity
  8
BLACK
  6
CONTINUOUS
 62
  256
370
   -1
100
AcDbLine
 10
103.083
 20
-111.945
 11
103.099
 21
-111.932
  0
LINE
  5
3F6
100
AcDbEntity
  8
BLACK
  6
CONTINUOUS
 62
  256
370
   -1
100
AcDbLine
 10
103.099
 20
-111.932
 11
103.403
 21
-111.628
  0
LINE
  5
3F7
100
AcDbEntity
  8
BLACK
  6
CONTINUOUS
 62
  256
370
   -1
100
AcDbLine
 10
103.403
 20
-111.628
 11
103.403
 21
-111.628
  0
LINE
  5
3F8
100
AcDbEntity
  8
BLACK
  6
CONTINUOUS
 62
  256
370
   -1
100
AcDbLine
 10
103.403
 20
-111.628
 11
103.45
 21
-111.581
  0
LINE
  5
3F9
100
AcDbEntity
  8
BLACK
  6
CONTINUOUS
 62
  256
370
   -1
100
AcDbLine
 10
103.45
 20
-111.581
 11
103.45
 21
-111.166
  0
LINE
  5
3FA
100
AcDbEntity
  8
BLACK
  6
CONTINUOUS
 62
  256
370
   -1
100
AcDbLine
 10
103.45
 20
-111.166
 11
103.448
 21
-111.159
  0
LINE
  5
3FB
100
AcDbEntity
  8
BLACK
  6
CONTINUOUS
 62
  256
370
   -1
100
AcDbLine
 10
103.448
 20
-111.159
 11
103.45
 21
-111.14
  0
LINE
  5
3FC
100
AcDbEntity
  8
BLACK
  6
CONTINUOUS
 62
  256
370
   -1
100
AcDbLine
 10
103.45
 20
-111.14
 11
103.45
 21
-99.1636
  0
LINE
  5
3FD
100
AcDbEntity
  8
BLACK
  6
CONTINUOUS
 62
  256
370
   -1
100
AcDbLine
 10
103.45
 20
-99.1636
 11
103.098
 21
-98.8116
  0
LINE
  5
3FE
100
AcDbEntity
  8
BLACK
  6
CONTINUOUS
 62
  256
370
   -1
100
AcDbLine
 10
103.098
 20
-98.8116
 11
103.083
 21
-98.7988
  0
LINE
  5
3FF
100
AcDbEntity
  8
BLACK
  6
CONTINUOUS
 62
  256
370
   -1
100
AcDbLine
 10
103.083
 20
-98.7988
 11
103.073
 21
-98.78149999999999
  0
LINE
  5
400
100
AcDbEntity
  8
BLACK
  6
CONTINUOUS
 62
  256
370
   -1
100
AcDbLine
 10
103.073
 20
-98.78149999999999
 11
103.061
 21
-98.76519999999999
  0
LINE
  5
401
100
AcDbEntity
  8
BLACK
  6
CONTINUOUS
 62
  256
370
   -1
100
AcDbLine
 10
103.061
 20
-98.76519999999999
 11
103.06
 21
-98.75879999999999
  0
LINE
  5
402
100
AcDbEntity
  8
BLACK
  6
CONTINUOUS
 62
  256
370
   -1
100
AcDbLine
 10
103.06
 20
-98.75879999999999
 11
103.056
 21
-98.753
  0
LINE
  5
403
100
AcDbEntity
  8
BLACK
  6
CONTINUOUS
 62
  256
370
   -1
100
AcDbLine
 10
103.056
 20
-98.753
 11
103.053
 21
-98.7334
  0
LINE
  5
404
100
AcDbEntity
  8
BLACK
  6
CONTINUOUS
 62
  256
370
   -1
100
AcDbLine
 10
103.053
 20
-98.7334
 11
103.048
 21
-98.7141
  0
LINE
  5
405
100
AcDbEntity
  8
BLACK
  6
CONTINUOUS
 62
  256
370
   -1
100
AcDbLine
 10
103.048
 20
-98.7141
 11
103.049
 21
-98.6943
  0
LINE
  5
406
100
AcDbEntity
  8
BLACK
  6
CONTINUOUS
 62
  256
370
   -1
100
AcDbLine
 10
103.049
 20
-98.6943
 11
103.049
 21
-96.00709999999999
  0
LINE
  5
407
100
AcDbEntity
  8
BLACK
  6
CONTINUOUS
 62
  256
370
   -1
100
AcDbLine
 10
103.049
 20
-96.00709999999999
 11
103.048
 21
-95.9873
  0
LINE
  5
408
100
AcDbEntity
  8
BLACK
  6
CONTINUOUS
 62
  256
370
   -1
100
AcDbLine
 10
103.048
 20
-95.9873
 11
103.053
 21
-95.96810000000001
  0
LINE
  5
409
100
AcDbEntity
  8
BLACK
  6
CONTINUOUS
 62
  256
370
   -1
100
AcDbLine
 10
103.053
 20
-95.96810000000001
 11
103.056
 21
-95.9485
  0
LINE
  5
40A
100
AcDbEntity
  8
BLACK
  6
CONTINUOUS
 62
  256
370
   -1
100
AcDbLine
 10
103.056
 20
-95.9485
 11
103.06
 21
-95.9427
  0
LINE
  5
40B
100
AcDbEntity
  8
BLACK
  6
CONTINUOUS
 62
  256
370
   -1
100
AcDbLine
 10
103.06
 20
-95.9427
 11
103.061
 21
-95.9362
  0
LINE
  5
40C
100
AcDbEntity
  8
BLACK
  6
CONTINUOUS
 62
  256
370
   -1
100
AcDbLine
 10
103.061
 20
-95.9362
 11
103.073
 21
-95.9199
  0
LINE
  5
40D
100
AcDbEntity
  8
BLACK
  6
CONTINUOUS
 62
  256
370
   -1
100
AcDbLine
 10
103.073
 20
-95.9199
 11
103.083
 21
-95.9027
  0
LINE
  5
40E
100
AcDbEntity
  8
BLACK
  6
CONTINUOUS
 62
  256
370
   -1
100
AcDbLine
 10
103.083
 20
-95.9027
 11
103.098
 21
-95.8899
  0
LINE
  5
40F
100
AcDbEntity
  8
BLACK
  6
CONTINUOUS
 62
  256
370
   -1
100
AcDbLine
 10
103.098
 20
-95.8899
 11
103.388
 21
-95.59990000000001
  0
LINE
  5
410
100
AcDbEntity
  8
BLACK
  6
CONTINUOUS
 62
  256
370
   -1
100
AcDbLine
 10
103.388
 20
-95.59990000000001
 11
103.388
 21
-93.93510000000001
  0
LINE
  5
411
100
AcDbEntity
  8
BLACK
  6
CONTINUOUS
 62
  256
370
   -1
100
AcDbLine
 10
103.388
 20
-93.93510000000001
 11
103.386
 21
-93.9153
  0
LINE
  5
412
100
AcDbEntity
  8
BLACK
  6
CONTINUOUS
 62
  256
370
   -1
100
AcDbLine
 10
103.386
 20
-93.9153
 11
103.391
 21
-93.8961
  0
LINE
  5
413
100
AcDbEntity
  8
BLACK
  6
CONTINUOUS
 62
  256
370
   -1
100
AcDbLine
 10
103.391
 20
-93.8961
 11
103.395
 21
-93.87649999999999
  0
LINE
  5
414
100
AcDbEntity
  8
BLACK
  6
CONTINUOUS
 62
  256
370
   -1
100
AcDbLine
 10
103.395
 20
-93.87649999999999
 11
103.398
 21
-93.8707
  0
LINE
  5
415
100
AcDbEntity
  8
BLACK
  6
CONTINUOUS
 62
  256
370
   -1
100
AcDbLine
 10
103.398
 20
-93.8707
 11
103.4
 21
-93.8642
  0
LINE
  5
416
100
AcDbEntity
  8
BLACK
  6
CONTINUOUS
 62
  256
370
   -1
100
AcDbLine
 10
103.4
 20
-93.8642
 11
103.411
 21
-93.8479
  0
LINE
  5
417
100
AcDbEntity
  8
BLACK
  6
CONTINUOUS
 62
  256
370
   -1
100
AcDbLine
 10
103.411
 20
-93.8479
 11
103.421
 21
-93.83069999999999
  0
LINE
  5
418
100
AcDbEntity
  8
BLACK
  6
CONTINUOUS
 62
  256
370
   -1
100
AcDbLine
 10
103.421
 20
-93.83069999999999
 11
103.437
 21
-93.81789999999999
  0
LINE
  5
419
100
AcDbEntity
  8
BLACK
  6
CONTINUOUS
 62
  256
370
   -1
100
AcDbLine
 10
103.437
 20
-93.81789999999999
 11
103.511
 21
-93.74379999999999
  0
LINE
  5
41A
100
AcDbEntity
  8
BLACK
  6
CONTINUOUS
 62
  256
370
   -1
100
AcDbLine
 10
103.511
 20
-93.74379999999999
 11
103.511
 21
-93.5313
  0
LINE
  5
41B
100
AcDbEntity
  8
BLACK
  6
CONTINUOUS
 62
  256
370
   -1
100
AcDbLine
 10
103.511
 20
-93.5313
 11
103.4
 21
-93.46720000000001
  0
LINE
  5
41C
100
AcDbEntity
  8
BLACK
  6
CONTINUOUS
 62
  256
370
   -1
100
AcDbLine
 10
103.4
 20
-93.46720000000001
 11
103.309
 21
-93.3591
  0
LINE
  5
41D
100
AcDbEntity
  8
BLACK
  6
CONTINUOUS
 62
  256
370
   -1
100
AcDbLine
 10
103.309
 20
-93.3591
 11
103.261
 21
-93.2266
  0
LINE
  5
41E
100
AcDbEntity
  8
BLACK
  6
CONTINUOUS
 62
  256
370
   -1
100
AcDbLine
 10
103.261
 20
-93.2266
 11
103.261
 21
-93.0855
  0
LINE
  5
41F
100
AcDbEntity
  8
BLACK
  6
CONTINUOUS
 62
  256
370
   -1
100
AcDbLine
 10
103.261
 20
-93.0855
 11
103.309
 21
-92.953
  0
LINE
  5
420
100
AcDbEntity
  8
BLACK
  6
CONTINUOUS
 62
  256
370
   -1
100
AcDbLine
 10
103.309
 20
-92.953
 11
103.4
 21
-92.8449
  0
LINE
  5
421
100
AcDbEntity
  8
BLACK
  6
CONTINUOUS
 62
  256
370
   -1
100
AcDbLine
 10
103.4
 20
-92.8449
 11
103.522
 21
-92.7744
  0
LINE
  5
422
100
AcDbEntity
  8
BLACK
  6
CONTINUOUS
 62
  256
370
   -1
100
AcDbLine
 10
103.522
 20
-92.7744
 11
103.661
 21
-92.7499
  0
LINE
  5
423
100
AcDbEntity
  8
BLACK
  6
CONTINUOUS
 62
  256
370
   -1
100
AcDbLine
 10
103.661
 20
-92.7499
 11
103.8
 21
-92.7744
  0
LINE
  5
424
100
AcDbEntity
  8
BLACK
  6
CONTINUOUS
 62
  256
370
   -1
100
AcDbLine
 10
112.039
 20
-113.418
 11
112.161
 21
-113.489
  0
LINE
  5
425
100
AcDbEntity
  8
BLACK
  6
CONTINUOUS
 62
  256
370
   -1
100
AcDbLine
 10
112.161
 20
-113.489
 11
112.252
 21
-113.597
  0
LINE
  5
426
100
AcDbEntity
  8
BLACK
  6
CONTINUOUS
 62
  256
370
   -1
100
AcDbLine
 10
112.252
 20
-113.597
 11
112.3
 21
-113.729
  0
LINE
  5
427
100
AcDbEntity
  8
BLACK
  6
CONTINUOUS
 62
  256
370
   -1
100
AcDbLine
 10
112.3
 20
-113.729
 11
112.3
 21
-113.871
  0
LINE
  5
428
100
AcDbEntity
  8
BLACK
  6
CONTINUOUS
 62
  256
370
   -1
100
AcDbLine
 10
112.3
 20
-113.871
 11
112.252
 21
-114.003
  0
LINE
  5
429
100
AcDbEntity
  8
BLACK
  6
CONTINUOUS
 62
  256
370
   -1
100
AcDbLine
 10
112.252
 20
-114.003
 11
112.161
 21
-114.111
  0
LINE
  5
42A
100
AcDbEntity
  8
BLACK
  6
CONTINUOUS
 62
  256
370
   -1
100
AcDbLine
 10
112.161
 20
-114.111
 11
112.039
 21
-114.182
  0
LINE
  5
42B
100
AcDbEntity
  8
BLACK
  6
CONTINUOUS
 62
  256
370
   -1
100
AcDbLine
 10
112.039
 20
-114.182
 11
111.9
 21
-114.206
  0
LINE
  5
42C
100
AcDbEntity
  8
BLACK
  6
CONTINUOUS
 62
  256
370
   -1
100
AcDbLine
 10
111.9
 20
-114.206
 11
111.761
 21
-114.182
  0
LINE
  5
42D
100
AcDbEntity
  8
BLACK
  6
CONTINUOUS
 62
  256
370
   -1
100
AcDbLine
 10
111.761
 20
-114.182
 11
111.639
 21
-114.111
  0
LINE
  5
42E
100
AcDbEntity
  8
BLACK
  6
CONTINUOUS
 62
  256
370
   -1
100
AcDbLine
 10
111.639
 20
-114.111
 11
111.548
 21
-114.003
  0
LINE
  5
42F
100
AcDbEntity
  8
BLACK
  6
CONTINUOUS
 62
  256
370
   -1
100
AcDbLine
 10
111.548
 20
-114.003
 11
111.5
 21
-113.871
  0
LINE
  5
430
100
AcDbEntity
  8
BLACK
  6
CONTINUOUS
 62
  256
370
   -1
100
AcDbLine
 10
111.5
 20
-113.871
 11
111.5
 21
-113.729
  0
LINE
  5
431
100
AcDbEntity
  8
BLACK
  6
CONTINUOUS
 62
  256
370
   -1
100
AcDbLine
 10
111.5
 20
-113.729
 11
111.548
 21
-113.597
  0
LINE
  5
432
100
AcDbEntity
  8
BLACK
  6
CONTINUOUS
 62
  256
370
   -1
100
AcDbLine
 10
111.548
 20
-113.597
 11
111.639
 21
-113.489
  0
LINE
  5
433
100
AcDbEntity
  8
BLACK
  6
CONTINUOUS
 62
  256
370
   -1
100
AcDbLine
 10
111.639
 20
-113.489
 11
111.761
 21
-113.418
  0
LINE
  5
434
100
AcDbEntity
  8
BLACK
  6
CONTINUOUS
 62
  256
370
   -1
100
AcDbLine
 10
111.761
 20
-113.418
 11
111.9
 21
-113.394
  0
LINE
  5
435
100
AcDbEntity
  8
BLACK
  6
CONTINUOUS
 62
  256
370
   -1
100
AcDbLine
 10
111.9
 20
-113.394
 11
112.039
 21
-113.418
  0
LINE
  5
436
100
AcDbEntity
  8
BLACK
  6
CONTINUOUS
 62
  256
370
   -1
100
AcDbLine
 10
153.651
 20
-111.61
 11
154.049
 21
-111.839
  0
LINE
  5
437
100
AcDbEntity
  8
BLACK
  6
CONTINUOUS
 62
  256
370
   -1
100
AcDbLine
 10
154.049
 20
-111.839
 11
154.343
 21
-112.19
  0
LINE
  5
438
100
AcDbEntity
  8
BLACK
  6
CONTINUOUS
 62
  256
370
   -1
100
AcDbLine
 10
154.343
 20
-112.19
 11
154.5
 21
-112.621
  0
LINE
  5
439
100
AcDbEntity
  8
BLACK
  6
CONTINUOUS
 62
  256
370
   -1
100
AcDbLine
 10
154.5
 20
-112.621
 11
154.5
 21
-113.079
  0
LINE
  5
43A
100
AcDbEntity
  8
BLACK
  6
CONTINUOUS
 62
  256
370
   -1
100
AcDbLine
 10
154.5
 20
-113.079
 11
154.343
 21
-113.51
  0
LINE
  5
43B
100
AcDbEntity
  8
BLACK
  6
CONTINUOUS
 62
  256
370
   -1
100
AcDbLine
 10
154.343
 20
-113.51
 11
154.049
 21
-113.861
  0
LINE
  5
43C
100
AcDbEntity
  8
BLACK
  6
CONTINUOUS
 62
  256
370
   -1
100
AcDbLine
 10
154.049
 20
-113.861
 11
153.651
 21
-114.09
  0
LINE
  5
43D
100
AcDbEntity
  8
BLACK
  6
CONTINUOUS
 62
  256
370
   -1
100
AcDbLine
 10
153.651
 20
-114.09
 11
153.2
 21
-114.17
  0
LINE
  5
43E
100
AcDbEntity
  8
BLACK
  6
CONTINUOUS
 62
  256
370
   -1
100
AcDbLine
 10
153.2
 20
-114.17
 11
152.749
 21
-114.09
  0
LINE
  5
43F
100
AcDbEntity
  8
BLACK
  6
CONTINUOUS
 62
  256
370
   -1
100
AcDbLine
 10
152.749
 20
-114.09
 11
152.351
 21
-113.861
  0
LINE
  5
440
100
AcDbEntity
  8
BLACK
  6
CONTINUOUS
 62
  256
370
   -1
100
AcDbLine
 10
152.351
 20
-113.861
 11
152.057
 21
-113.51
  0
LINE
  5
441
100
AcDbEntity
  8
BLACK
  6
CONTINUOUS
 62
  256
370
   -1
100
AcDbLine
 10
152.057
 20
-113.51
 11
151.9
 21
-113.079
  0
LINE
  5
442
100
AcDbEntity
  8
BLACK
  6
CONTINUOUS
 62
  256
370
   -1
100
AcDbLine
 10
151.9
 20
-113.079
 11
151.9
 21
-112.621
  0
LINE
  5
443
100
AcDbEntity
  8
BLACK
  6
CONTINUOUS
 62
  256
370
   -1
100
AcDbLine
 10
151.9
 20
-112.621
 11
152.057
 21
-112.19
  0
LINE
  5
444
100
AcDbEntity
  8
BLACK
  6
CONTINUOUS
 62
  256
370
   -1
100
AcDbLine
 10
152.057
 20
-112.19
 11
152.351
 21
-111.839
  0
LINE
  5
445
100
AcDbEntity
  8
BLACK
  6
CONTINUOUS
 62
  256
370
   -1
100
AcDbLine
 10
152.351
 20
-111.839
 11
152.749
 21
-111.61
  0
LINE
  5
446
100
AcDbEntity
  8
BLACK
  6
CONTINUOUS
 62
  256
370
   -1
100
AcDbLine
 10
152.749
 20
-111.61
 11
153.2
 21
-111.53
  0
LINE
  5
447
100
AcDbEntity
  8
BLACK
  6
CONTINUOUS
 62
  256
370
   -1
100
AcDbLine
 10
153.2
 20
-111.53
 11
153.651
 21
-111.61
  0
LINE
  5
448
100
AcDbEntity
  8
BLACK
  6
CONTINUOUS
 62
  256
370
   -1
100
AcDbLine
 10
105.551
 20
-111.61
 11
105.949
 21
-111.839
  0
LINE
  5
449
100
AcDbEntity
  8
BLACK
  6
CONTINUOUS
 62
  256
370
   -1
100
AcDbLine
 10
105.949
 20
-111.839
 11
106.243
 21
-112.19
  0
LINE
  5
44A
100
AcDbEntity
  8
BLACK
  6
CONTINUOUS
 62
  256
370
   -1
100
AcDbLine
 10
106.243
 20
-112.19
 11
106.4
 21
-112.621
  0
LINE
  5
44B
100
AcDbEntity
  8
BLACK
  6
CONTINUOUS
 62
  256
370
   -1
100
AcDbLine
 10
106.4
 20
-112.621
 11
106.4
 21
-113.079
  0
LINE
  5
44C
100
AcDbEntity
  8
BLACK
  6
CONTINUOUS
 62
  256
370
   -1
100
AcDbLine
 10
106.4
 20
-113.079
 11
106.243
 21
-113.51
  0
LINE
  5
44D
100
AcDbEntity
  8
BLACK
  6
CONTINUOUS
 62
  256
370
   -1
100
AcDbLine
 10
106.243
 20
-113.51
 11
105.949
 21
-113.861
  0
LINE
  5
44E
100
AcDbEntity
  8
BLACK
  6
CONTINUOUS
 62
  256
370
   -1
100
AcDbLine
 10
105.949
 20
-113.861
 11
105.551
 21
-114.09
  0
LINE
  5
44F
100
AcDbEntity
  8
BLACK
  6
CONTINUOUS
 62
  256
370
   -1
100
AcDbLine
 10
105.551
 20
-114.09
 11
105.1
 21
-114.17
  0
LINE
  5
450
100
AcDbEntity
  8
BLACK
  6
CONTINUOUS
 62
  256
370
   -1
100
AcDbLine
 10
105.1
 20
-114.17
 11
104.649
 21
-114.09
  0
LINE
  5
451
100
AcDbEntity
  8
BLACK
  6
CONTINUOUS
 62
  256
370
   -1
100
AcDbLine
 10
104.649
 20
-114.09
 11
104.251
 21
-113.861
  0
LINE
  5
452
100
AcDbEntity
  8
BLACK
  6
CONTINUOUS
 62
  256
370
   -1
100
AcDbLine
 10
104.251
 20
-113.861
 11
103.957
 21
-113.51
  0
LINE
  5
453
100
AcDbEntity
  8
BLACK
  6
CONTINUOUS
 62
  256
370
   -1
100
AcDbLine
 10
103.957
 20
-113.51
 11
103.8
 21
-113.079
  0
LINE
  5
454
100
AcDbEntity
  8
BLACK
  6
CONTINUOUS
 62
  256
370
   -1
100
AcDbLine
 10
103.8
 20
-113.079
 11
103.8
 21
-112.621
  0
LINE
  5
455
100
AcDbEntity
  8
BLACK
  6
CONTINUOUS
 62
  256
370
   -1
100
AcDbLine
 10
103.8
 20
-112.621
 11
103.957
 21
-112.19
  0
LINE
  5
456
100
AcDbEntity
  8
BLACK
  6
CONTINUOUS
 62
  256
370
   -1
100
AcDbLine
 10
103.957
 20
-112.19
 11
104.251
 21
-111.839
  0
LINE
  5
457
100
AcDbEntity
  8
BLACK
  6
CONTINUOUS
 62
  256
370
   -1
100
AcDbLine
 10
104.251
 20
-111.839
 11
104.649
 21
-111.61
  0
LINE
  5
458
100
AcDbEntity
  8
BLACK
  6
CONTINUOUS
 62
  256
370
   -1
100
AcDbLine
 10
104.649
 20
-111.61
 11
105.1
 21
-111.53
  0
LINE
  5
459
100
AcDbEntity
  8
BLACK
  6
CONTINUOUS
 62
  256
370
   -1
100
AcDbLine
 10
105.1
 20
-111.53
 11
105.551
 21
-111.61
  0
LINE
  5
45A
100
AcDbEntity
  8
BLACK
  6
CONTINUOUS
 62
  256
370
   -1
100
AcDbLine
 10
100.269
 20
-112.111
 11
100.506
 21
-112.247
  0
LINE
  5
45B
100
AcDbEntity
  8
BLACK
  6
CONTINUOUS
 62
  256
370
   -1
100
AcDbLine
 10
100.506
 20
-112.247
 11
100.682
 21
-112.457
  0
LINE
  5
45C
100
AcDbEntity
  8
BLACK
  6
CONTINUOUS
 62
  256
370
   -1
100
AcDbLine
 10
100.682
 20
-112.457
 11
100.775
 21
-112.713
  0
LINE
  5
45D
100
AcDbEntity
  8
BLACK
  6
CONTINUOUS
 62
  256
370
   -1
100
AcDbLine
 10
100.775
 20
-112.713
 11
100.775
 21
-112.987
  0
LINE
  5
45E
100
AcDbEntity
  8
BLACK
  6
CONTINUOUS
 62
  256
370
   -1
100
AcDbLine
 10
100.775
 20
-112.987
 11
100.682
 21
-113.243
  0
LINE
  5
45F
100
AcDbEntity
  8
BLACK
  6
CONTINUOUS
 62
  256
370
   -1
100
AcDbLine
 10
100.682
 20
-113.243
 11
100.506
 21
-113.453
  0
LINE
  5
460
100
AcDbEntity
  8
BLACK
  6
CONTINUOUS
 62
  256
370
   -1
100
AcDbLine
 10
100.506
 20
-113.453
 11
100.269
 21
-113.589
  0
LINE
  5
461
100
AcDbEntity
  8
BLACK
  6
CONTINUOUS
 62
  256
370
   -1
100
AcDbLine
 10
100.269
 20
-113.589
 11
100
 21
-113.637
  0
LINE
  5
462
100
AcDbEntity
  8
BLACK
  6
CONTINUOUS
 62
  256
370
   -1
100
AcDbLine
 10
100
 20
-113.637
 11
99.7308
 21
-113.589
  0
LINE
  5
463
100
AcDbEntity
  8
BLACK
  6
CONTINUOUS
 62
  256
370
   -1
100
AcDbLine
 10
99.7308
 20
-113.589
 11
99.49420000000001
 21
-113.453
  0
LINE
  5
464
100
AcDbEntity
  8
BLACK
  6
CONTINUOUS
 62
  256
370
   -1
100
AcDbLine
 10
99.49420000000001
 20
-113.453
 11
99.3185
 21
-113.243
  0
LINE
  5
465
100
AcDbEntity
  8
BLACK
  6
CONTINUOUS
 62
  256
370
   -1
100
AcDbLine
 10
99.3185
 20
-113.243
 11
99.22499999999999
 21
-112.987
  0
LINE
  5
466
100
AcDbEntity
  8
BLACK
  6
CONTINUOUS
 62
  256
370
   -1
100
AcDbLine
 10
99.22499999999999
 20
-112.987
 11
99.22499999999999
 21
-112.713
  0
LINE
  5
467
100
AcDbEntity
  8
BLACK
  6
CONTINUOUS
 62
  256
370
   -1
100
AcDbLine
 10
99.22499999999999
 20
-112.713
 11
99.3185
 21
-112.457
  0
LINE
  5
468
100
AcDbEntity
  8
BLACK
  6
CONTINUOUS
 62
  256
370
   -1
100
AcDbLine
 10
99.3185
 20
-112.457
 11
99.49420000000001
 21
-112.247
  0
LINE
  5
469
100
AcDbEntity
  8
BLACK
  6
CONTINUOUS
 62
  256
370
   -1
100
AcDbLine
 10
99.49420000000001
 20
-112.247
 11
99.7308
 21
-112.111
  0
LINE
  5
46A
100
AcDbEntity
  8
BLACK
  6
CONTINUOUS
 62
  256
370
   -1
100
AcDbLine
 10
99.7308
 20
-112.111
 11
100
 21
-112.063
  0
LINE
  5
46B
100
AcDbEntity
  8
BLACK
  6
CONTINUOUS
 62
  256
370
   -1
100
AcDbLine
 10
100
 20
-112.063
 11
100.269
 21
-112.111
  0
LINE
  5
46C
100
AcDbEntity
  8
BLACK
  6
CONTINUOUS
 62
  256
370
   -1
100
AcDbLine
 10
110.469
 20
-112.111
 11
110.706
 21
-112.247
  0
LINE
  5
46D
100
AcDbEntity
  8
BLACK
  6
CONTINUOUS
 62
  256
370
   -1
100
AcDbLine
 10
110.706
 20
-112.247
 11
110.882
 21
-112.457
  0
LINE
  5
46E
100
AcDbEntity
  8
BLACK
  6
CONTINUOUS
 62
  256
370
   -1
100
AcDbLine
 10
110.882
 20
-112.457
 11
110.975
 21
-112.713
  0
LINE
  5
46F
100
AcDbEntity
  8
BLACK
  6
CONTINUOUS
 62
  256
370
   -1
100
AcDbLine
 10
110.975
 20
-112.713
 11
110.975
 21
-112.987
  0
LINE
  5
470
100
AcDbEntity
  8
BLACK
  6
CONTINUOUS
 62
  256
370
   -1
100
AcDbLine
 10
110.975
 20
-112.987
 11
110.882
 21
-113.243
  0
LINE
  5
471
100
AcDbEntity
  8
BLACK
  6
CONTINUOUS
 62
  256
370
   -1
100
AcDbLine
 10
110.882
 20
-113.243
 11
110.706
 21
-113.453
  0
LINE
  5
472
100
AcDbEntity
  8
BLACK
  6
CONTINUOUS
 62
  256
370
   -1
100
AcDbLine
 10
110.706
 20
-113.453
 11
110.469
 21
-113.589
  0
LINE
  5
473
100
AcDbEntity
  8
BLACK
  6
CONTINUOUS
 62
  256
370
   -1
100
AcDbLine
 10
110.469
 20
-113.589
 11
110.2
 21
-113.637
  0
LINE
  5
474
100
AcDbEntity
  8
BLACK
  6
CONTINUOUS
 62
  256
370
   -1
100
AcDbLine
 10
110.2
 20
-113.637
 11
109.931
 21
-113.589
  0
LINE
  5
475
100
AcDbEntity
  8
BLACK
  6
CONTINUOUS
 62
  256
370
   -1
100
AcDbLine
 10
109.931
 20
-113.589
 11
109.694
 21
-113.453
  0
LINE
  5
476
100
AcDbEntity
  8
BLACK
  6
CONTINUOUS
 62
  256
370
   -1
100
AcDbLine
 10
109.694
 20
-113.453
 11
109.518
 21
-113.243
  0
LINE
  5
477
100
AcDbEntity
  8
BLACK
  6
CONTINUOUS
 62
  256
370
   -1
100
AcDbLine
 10
109.518
 20
-113.243
 11
109.425
 21
-112.987
  0
LINE
  5
478
100
AcDbEntity
  8
BLACK
  6
CONTINUOUS
 62
  256
370
   -1
100
AcDbLine
 10
109.425
 20
-112.987
 11
109.425
 21
-112.713
  0
LINE
  5
479
100
AcDbEntity
  8
BLACK
  6
CONTINUOUS
 62
  256
370
   -1
100
AcDbLine
 10
109.425
 20
-112.713
 11
109.518
 21
-112.457
  0
LINE
  5
47A
100
AcDbEntity
  8
BLACK
  6
CONTINUOUS
 62
  256
370
   -1
100
AcDbLine
 10
109.518
 20
-112.457
 11
109.694
 21
-112.247
  0
LINE
  5
47B
100
AcDbEntity
  8
BLACK
  6
CONTINUOUS
 62
  256
370
   -1
100
AcDbLine
 10
109.694
 20
-112.247
 11
109.931
 21
-112.111
  0
LINE
  5
47C
100
AcDbEntity
  8
BLACK
  6
CONTINUOUS
 62
  256
370
   -1
100
AcDbLine
 10
109.931
 20
-112.111
 11
110.2
 21
-112.063
  0
LINE
  5
47D
100
AcDbEntity
  8
BLACK
  6
CONTINUOUS
 62
  256
370
   -1
100
AcDbLine
 10
110.2
 20
-112.063
 11
110.469
 21
-112.111
  0
LINE
  5
47E
100
AcDbEntity
  8
BLACK
  6
CONTINUOUS
 62
  256
370
   -1
100
AcDbLine
 10
148.369
 20
-112.111
 11
148.606
 21
-112.247
  0
LINE
  5
47F
100
AcDbEntity
  8
BLACK
  6
CONTINUOUS
 62
  256
370
   -1
100
AcDbLine
 10
148.606
 20
-112.247
 11
148.782
 21
-112.457
  0
LINE
  5
480
100
AcDbEntity
  8
BLACK
  6
CONTINUOUS
 62
  256
370
   -1
100
AcDbLine
 10
148.782
 20
-112.457
 11
148.875
 21
-112.713
  0
LINE
  5
481
100
AcDbEntity
  8
BLACK
  6
CONTINUOUS
 62
  256
370
   -1
100
AcDbLine
 10
148.875
 20
-112.713
 11
148.875
 21
-112.987
  0
LINE
  5
482
100
AcDbEntity
  8
BLACK
  6
CONTINUOUS
 62
  256
370
   -1
100
AcDbLine
 10
148.875
 20
-112.987
 11
148.782
 21
-113.243
  0
LINE
  5
483
100
AcDbEntity
  8
BLACK
  6
CONTINUOUS
 62
  256
370
   -1
100
AcDbLine
 10
148.782
 20
-113.243
 11
148.606
 21
-113.453
  0
LINE
  5
484
100
AcDbEntity
  8
BLACK
  6
CONTINUOUS
 62
  256
370
   -1
100
AcDbLine
 10
148.606
 20
-113.453
 11
148.369
 21
-113.589
  0
LINE
  5
485
100
AcDbEntity
  8
BLACK
  6
CONTINUOUS
 62
  256
370
   -1
100
AcDbLine
 10
148.369
 20
-113.589
 11
148.1
 21
-113.637
  0
LINE
  5
486
100
AcDbEntity
  8
BLACK
  6
CONTINUOUS
 62
  256
370
   -1
100
AcDbLine
 10
148.1
 20
-113.637
 11
147.831
 21
-113.589
  0
LINE
  5
487
100
AcDbEntity
  8
BLACK
  6
CONTINUOUS
 62
  256
370
   -1
100
AcDbLine
 10
147.831
 20
-113.589
 11
147.594
 21
-113.453
  0
LINE
  5
488
100
AcDbEntity
  8
BLACK
  6
CONTINUOUS
 62
  256
370
   -1
100
AcDbLine
 10
147.594
 20
-113.453
 11
147.418
 21
-113.243
  0
LINE
  5
489
100
AcDbEntity
  8
BLACK
  6
CONTINUOUS
 62
  256
370
   -1
100
AcDbLine
 10
147.418
 20
-113.243
 11
147.325
 21
-112.987
  0
LINE
  5
48A
100
AcDbEntity
  8
BLACK
  6
CONTINUOUS
 62
  256
370
   -1
100
AcDbLine
 10
147.325
 20
-112.987
 11
147.325
 21
-112.713
  0
LINE
  5
48B
100
AcDbEntity
  8
BLACK
  6
CONTINUOUS
 62
  256
370
   -1
100
AcDbLine
 10
147.325
 20
-112.713
 11
147.418
 21
-112.457
  0
LINE
  5
48C
100
AcDbEntity
  8
BLACK
  6
CONTINUOUS
 62
  256
370
   -1
100
AcDbLine
 10
147.418
 20
-112.457
 11
147.594
 21
-112.247
  0
LINE
  5
48D
100
AcDbEntity
  8
BLACK
  6
CONTINUOUS
 62
  256
370
   -1
100
AcDbLine
 10
147.594
 20
-112.247
 11
147.831
 21
-112.111
  0
LINE
  5
48E
100
AcDbEntity
  8
BLACK
  6
CONTINUOUS
 62
  256
370
   -1
100
AcDbLine
 10
147.831
 20
-112.111
 11
148.1
 21
-112.063
  0
LINE
  5
48F
100
AcDbEntity
  8
BLACK
  6
CONTINUOUS
 62
  256
370
   -1
100
AcDbLine
 10
148.1
 20
-112.063
 11
148.369
 21
-112.111
  0
LINE
  5
490
100
AcDbEntity
  8
BLACK
  6
CONTINUOUS
 62
  256
370
   -1
100
AcDbLine
 10
158.569
 20
-112.111
 11
158.806
 21
-112.247
  0
LINE
  5
491
100
AcDbEntity
  8
BLACK
  6
CONTINUOUS
 62
  256
370
   -1
100
AcDbLine
 10
158.806
 20
-112.247
 11
158.982
 21
-112.457
  0
LINE
  5
492
100
AcDbEntity
  8
BLACK
  6
CONTINUOUS
 62
  256
370
   -1
100
AcDbLine
 10
158.982
 20
-112.457
 11
159.075
 21
-112.713
  0
LINE
  5
493
100
AcDbEntity
  8
BLACK
  6
CONTINUOUS
 62
  256
370
   -1
100
AcDbLine
 10
159.075
 20
-112.713
 11
159.075
 21
-112.987
  0
LINE
  5
494
100
AcDbEntity
  8
BLACK
  6
CONTINUOUS
 62
  256
370
   -1
100
AcDbLine
 10
159.075
 20
-112.987
 11
158.982
 21
-113.243
  0
LINE
  5
495
100
AcDbEntity
  8
BLACK
  6
CONTINUOUS
 62
  256
370
   -1
100
AcDbLine
 10
158.982
 20
-113.243
 11
158.806
 21
-113.453
  0
LINE
  5
496
100
AcDbEntity
  8
BLACK
  6
CONTINUOUS
 62
  256
370
   -1
100
AcDbLine
 10
158.806
 20
-113.453
 11
158.569
 21
-113.589
  0
LINE
  5
497
100
AcDbEntity
  8
BLACK
  6
CONTINUOUS
 62
  256
370
   -1
100
AcDbLine
 10
158.569
 20
-113.589
 11
158.3
 21
-113.637
  0
LINE
  5
498
100
AcDbEntity
  8
BLACK
  6
CONTINUOUS
 62
  256
370
   -1
100
AcDbLine
 10
158.3
 20
-113.637
 11
158.031
 21
-113.589
  0
LINE
  5
499
100
AcDbEntity
  8
BLACK
  6
CONTINUOUS
 62
  256
370
   -1
100
AcDbLine
 10
158.031
 20
-113.589
 11
157.794
 21
-113.453
  0
LINE
  5
49A
100
AcDbEntity
  8
BLACK
  6
CONTINUOUS
 62
  256
370
   -1
100
AcDbLine
 10
157.794
 20
-113.453
 11
157.618
 21
-113.243
  0
LINE
  5
49B
100
AcDbEntity
  8
BLACK
  6
CONTINUOUS
 62
  256
370
   -1
100
AcDbLine
 10
157.618
 20
-113.243
 11
157.525
 21
-112.987
  0
LINE
  5
49C
100
AcDbEntity
  8
BLACK
  6
CONTINUOUS
 62
  256
370
   -1
100
AcDbLine
 10
157.525
 20
-112.987
 11
157.525
 21
-112.713
  0
LINE
  5
49D
100
AcDbEntity
  8
BLACK
  6
CONTINUOUS
 62
  256
370
   -1
100
AcDbLine
 10
157.525
 20
-112.713
 11
157.618
 21
-112.457
  0
LINE
  5
49E
100
AcDbEntity
  8
BLACK
  6
CONTINUOUS
 62
  256
370
   -1
100
AcDbLine
 10
157.618
 20
-112.457
 11
157.794
 21
-112.247
  0
LINE
  5
49F
100
AcDbEntity
  8
BLACK
  6
CONTINUOUS
 62
  256
370
   -1
100
AcDbLine
 10
157.794
 20
-112.247
 11
158.031
 21
-112.111
  0
LINE
  5
4A0
100
AcDbEntity
  8
BLACK
  6
CONTINUOUS
 62
  256
370
   -1
100
AcDbLine
 10
158.031
 20
-112.111
 11
158.3
 21
-112.063
  0
LINE
  5
4A1
100
AcDbEntity
  8
BLACK
  6
CONTINUOUS
 62
  256
370
   -1
100
AcDbLine
 10
158.3
 20
-112.063
 11
158.569
 21
-112.111
  0
LINE
  5
4A2
100
AcDbEntity
  8
BLACK
  6
CONTINUOUS
 62
  256
370
   -1
100
AcDbLine
 10
107.539
 20
-112.118
 11
107.661
 21
-112.189
  0
LINE
  5
4A3
100
AcDbEntity
  8
BLACK
  6
CONTINUOUS
 62
  256
370
   -1
100
AcDbLine
 10
107.661
 20
-112.189
 11
107.752
 21
-112.297
  0
LINE
  5
4A4
100
AcDbEntity
  8
BLACK
  6
CONTINUOUS
 62
  256
370
   -1
100
AcDbLine
 10
107.752
 20
-112.297
 11
107.8
 21
-112.429
  0
LINE
  5
4A5
100
AcDbEntity
  8
BLACK
  6
CONTINUOUS
 62
  256
370
   -1
100
AcDbLine
 10
107.8
 20
-112.429
 11
107.8
 21
-112.571
  0
LINE
  5
4A6
100
AcDbEntity
  8
BLACK
  6
CONTINUOUS
 62
  256
370
   -1
100
AcDbLine
 10
107.8
 20
-112.571
 11
107.752
 21
-112.703
  0
LINE
  5
4A7
100
AcDbEntity
  8
BLACK
  6
CONTINUOUS
 62
  256
370
   -1
100
AcDbLine
 10
107.752
 20
-112.703
 11
107.661
 21
-112.811
  0
LINE
  5
4A8
100
AcDbEntity
  8
BLACK
  6
CONTINUOUS
 62
  256
370
   -1
100
AcDbLine
 10
107.661
 20
-112.811
 11
107.539
 21
-112.882
  0
LINE
  5
4A9
100
AcDbEntity
  8
BLACK
  6
CONTINUOUS
 62
  256
370
   -1
100
AcDbLine
 10
107.539
 20
-112.882
 11
107.4
 21
-112.906
  0
LINE
  5
4AA
100
AcDbEntity
  8
BLACK
  6
CONTINUOUS
 62
  256
370
   -1
100
AcDbLine
 10
107.4
 20
-112.906
 11
107.261
 21
-112.882
  0
LINE
  5
4AB
100
AcDbEntity
  8
BLACK
  6
CONTINUOUS
 62
  256
370
   -1
100
AcDbLine
 10
107.261
 20
-112.882
 11
107.139
 21
-112.811
  0
LINE
  5
4AC
100
AcDbEntity
  8
BLACK
  6
CONTINUOUS
 62
  256
370
   -1
100
AcDbLine
 10
107.139
 20
-112.811
 11
107.048
 21
-112.703
  0
LINE
  5
4AD
100
AcDbEntity
  8
BLACK
  6
CONTINUOUS
 62
  256
370
   -1
100
AcDbLine
 10
107.048
 20
-112.703
 11
107
 21
-112.571
  0
LINE
  5
4AE
100
AcDbEntity
  8
BLACK
  6
CONTINUOUS
 62
  256
370
   -1
100
AcDbLine
 10
107
 20
-112.571
 11
107
 21
-112.429
  0
LINE
  5
4AF
100
AcDbEntity
  8
BLACK
  6
CONTINUOUS
 62
  256
370
   -1
100
AcDbLine
 10
107
 20
-112.429
 11
107.048
 21
-112.297
  0
LINE
  5
4B0
100
AcDbEntity
  8
BLACK
  6
CONTINUOUS
 62
  256
370
   -1
100
AcDbLine
 10
107.048
 20
-112.297
 11
107.139
 21
-112.189
  0
LINE
  5
4B1
100
AcDbEntity
  8
BLACK
  6
CONTINUOUS
 62
  256
370
   -1
100
AcDbLine
 10
107.139
 20
-112.189
 11
107.261
 21
-112.118
  0
LINE
  5
4B2
100
AcDbEntity
  8
BLACK
  6
CONTINUOUS
 62
  256
370
   -1
100
AcDbLine
 10
107.261
 20
-112.118
 11
107.4
 21
-112.094
  0
LINE
  5
4B3
100
AcDbEntity
  8
BLACK
  6
CONTINUOUS
 62
  256
370
   -1
100
AcDbLine
 10
107.4
 20
-112.094
 11
107.539
 21
-112.118
  0
LINE
  5
4B4
100
AcDbEntity
  8
BLACK
  6
CONTINUOUS
 62
  256
370
   -1
100
AcDbLine
 10
101.761
 20
-110.189
 11
101.852
 21
-110.297
  0
LINE
  5
4B5
100
AcDbEntity
  8
BLACK
  6
CONTINUOUS
 62
  256
370
   -1
100
AcDbLine
 10
101.852
 20
-110.297
 11
101.9
 21
-110.429
  0
LINE
  5
4B6
100
AcDbEntity
  8
BLACK
  6
CONTINUOUS
 62
  256
370
   -1
100
AcDbLine
 10
101.9
 20
-110.429
 11
101.9
 21
-110.571
  0
LINE
  5
4B7
100
AcDbEntity
  8
BLACK
  6
CONTINUOUS
 62
  256
370
   -1
100
AcDbLine
 10
101.9
 20
-110.571
 11
101.852
 21
-110.703
  0
LINE
  5
4B8
100
AcDbEntity
  8
BLACK
  6
CONTINUOUS
 62
  256
370
   -1
100
AcDbLine
 10
101.852
 20
-110.703
 11
101.761
 21
-110.811
  0
LINE
  5
4B9
100
AcDbEntity
  8
BLACK
  6
CONTINUOUS
 62
  256
370
   -1
100
AcDbLine
 10
101.761
 20
-110.811
 11
101.639
 21
-110.882
  0
LINE
  5
4BA
100
AcDbEntity
  8
BLACK
  6
CONTINUOUS
 62
  256
370
   -1
100
AcDbLine
 10
101.639
 20
-110.882
 11
101.5
 21
-110.906
  0
LINE
  5
4BB
100
AcDbEntity
  8
BLACK
  6
CONTINUOUS
 62
  256
370
   -1
100
AcDbLine
 10
101.5
 20
-110.906
 11
101.361
 21
-110.882
  0
LINE
  5
4BC
100
AcDbEntity
  8
BLACK
  6
CONTINUOUS
 62
  256
370
   -1
100
AcDbLine
 10
101.361
 20
-110.882
 11
101.239
 21
-110.811
  0
LINE
  5
4BD
100
AcDbEntity
  8
BLACK
  6
CONTINUOUS
 62
  256
370
   -1
100
AcDbLine
 10
101.239
 20
-110.811
 11
101.148
 21
-110.703
  0
LINE
  5
4BE
100
AcDbEntity
  8
BLACK
  6
CONTINUOUS
 62
  256
370
   -1
100
AcDbLine
 10
101.148
 20
-110.703
 11
101.1
 21
-110.571
  0
LINE
  5
4BF
100
AcDbEntity
  8
BLACK
  6
CONTINUOUS
 62
  256
370
   -1
100
AcDbLine
 10
101.1
 20
-110.571
 11
101.1
 21
-110.429
  0
LINE
  5
4C0
100
AcDbEntity
  8
BLACK
  6
CONTINUOUS
 62
  256
370
   -1
100
AcDbLine
 10
101.1
 20
-110.429
 11
101.148
 21
-110.297
  0
LINE
  5
4C1
100
AcDbEntity
  8
BLACK
  6
CONTINUOUS
 62
  256
370
   -1
100
AcDbLine
 10
101.148
 20
-110.297
 11
101.239
 21
-110.189
  0
LINE
  5
4C2
100
AcDbEntity
  8
BLACK
  6
CONTINUOUS
 62
  256
370
   -1
100
AcDbLine
 10
101.239
 20
-110.189
 11
101.35
 21
-110.125
  0
LINE
  5
4C3
100
AcDbEntity
  8
BLACK
  6
CONTINUOUS
 62
  256
370
   -1
100
AcDbLine
 10
101.35
 20
-110.125
 11
101.35
 21
-109.921
  0
LINE
  5
4C4
100
AcDbEntity
  8
BLACK
  6
CONTINUOUS
 62
  256
370
   -1
100
AcDbLine
 10
101.35
 20
-109.921
 11
101.35
 21
-109.921
  0
LINE
  5
4C5
100
AcDbEntity
  8
BLACK
  6
CONTINUOUS
 62
  256
370
   -1
100
AcDbLine
 10
101.35
 20
-109.921
 11
101.35
 21
-108.121
  0
LINE
  5
4C6
100
AcDbEntity
  8
BLACK
  6
CONTINUOUS
 62
  256
370
   -1
100
AcDbLine
 10
101.35
 20
-108.121
 11
99.69629999999999
 21
-106.468
  0
LINE
  5
4C7
100
AcDbEntity
  8
BLACK
  6
CONTINUOUS
 62
  256
370
   -1
100
AcDbLine
 10
99.69629999999999
 20
-106.468
 11
99.6811
 21
-106.455
  0
LINE
  5
4C8
100
AcDbEntity
  8
BLACK
  6
CONTINUOUS
 62
  256
370
   -1
100
AcDbLine
 10
99.6811
 20
-106.455
 11
99.6711
 21
-106.438
  0
LINE
  5
4C9
100
AcDbEntity
  8
BLACK
  6
CONTINUOUS
 62
  256
370
   -1
100
AcDbLine
 10
99.6711
 20
-106.438
 11
99.6597
 21
-106.421
  0
LINE
  5
4CA
100
AcDbEntity
  8
BLACK
  6
CONTINUOUS
 62
  256
370
   -1
100
AcDbLine
 10
99.6597
 20
-106.421
 11
99.658
 21
-106.415
  0
LINE
  5
4CB
100
AcDbEntity
  8
BLACK
  6
CONTINUOUS
 62
  256
370
   -1
100
AcDbLine
 10
99.658
 20
-106.415
 11
99.6546
 21
-106.409
  0
LINE
  5
4CC
100
AcDbEntity
  8
BLACK
  6
CONTINUOUS
 62
  256
370
   -1
100
AcDbLine
 10
99.6546
 20
-106.409
 11
99.6512
 21
-106.389
  0
LINE
  5
4CD
100
AcDbEntity
  8
BLACK
  6
CONTINUOUS
 62
  256
370
   -1
100
AcDbLine
 10
99.6512
 20
-106.389
 11
99.646
 21
-106.37
  0
LINE
  5
4CE
100
AcDbEntity
  8
BLACK
  6
CONTINUOUS
 62
  256
370
   -1
100
AcDbLine
 10
99.646
 20
-106.37
 11
99.6478
 21
-106.35
  0
LINE
  5
4CF
100
AcDbEntity
  8
BLACK
  6
CONTINUOUS
 62
  256
370
   -1
100
AcDbLine
 10
99.6478
 20
-106.35
 11
99.6478
 21
-96.9885
  0
LINE
  5
4D0
100
AcDbEntity
  8
BLACK
  6
CONTINUOUS
 62
  256
370
   -1
100
AcDbLine
 10
99.6478
 20
-96.9885
 11
99.646
 21
-96.9687
  0
LINE
  5
4D1
100
AcDbEntity
  8
BLACK
  6
CONTINUOUS
 62
  256
370
   -1
100
AcDbLine
 10
99.646
 20
-96.9687
 11
99.6512
 21
-96.9495
  0
LINE
  5
4D2
100
AcDbEntity
  8
BLACK
  6
CONTINUOUS
 62
  256
370
   -1
100
AcDbLine
 10
99.6512
 20
-96.9495
 11
99.6546
 21
-96.9299
  0
LINE
  5
4D3
100
AcDbEntity
  8
BLACK
  6
CONTINUOUS
 62
  256
370
   -1
100
AcDbLine
 10
99.6546
 20
-96.9299
 11
99.658
 21
-96.9241
  0
LINE
  5
4D4
100
AcDbEntity
  8
BLACK
  6
CONTINUOUS
 62
  256
370
   -1
100
AcDbLine
 10
99.658
 20
-96.9241
 11
99.6597
 21
-96.91759999999999
  0
LINE
  5
4D5
100
AcDbEntity
  8
BLACK
  6
CONTINUOUS
 62
  256
370
   -1
100
AcDbLine
 10
99.6597
 20
-96.91759999999999
 11
99.6711
 21
-96.90130000000001
  0
LINE
  5
4D6
100
AcDbEntity
  8
BLACK
  6
CONTINUOUS
 62
  256
370
   -1
100
AcDbLine
 10
99.6711
 20
-96.90130000000001
 11
99.6811
 21
-96.8841
  0
LINE
  5
4D7
100
AcDbEntity
  8
BLACK
  6
CONTINUOUS
 62
  256
370
   -1
100
AcDbLine
 10
99.6811
 20
-96.8841
 11
99.69629999999999
 21
-96.87130000000001
  0
LINE
  5
4D8
100
AcDbEntity
  8
BLACK
  6
CONTINUOUS
 62
  256
370
   -1
100
AcDbLine
 10
99.69629999999999
 20
-96.87130000000001
 11
99.7869
 21
-96.7807
  0
LINE
  5
4D9
100
AcDbEntity
  8
BLACK
  6
CONTINUOUS
 62
  256
370
   -1
100
AcDbLine
 10
99.7869
 20
-96.7807
 11
99.7997
 21
-96.7654
  0
LINE
  5
4DA
100
AcDbEntity
  8
BLACK
  6
CONTINUOUS
 62
  256
370
   -1
100
AcDbLine
 10
99.7997
 20
-96.7654
 11
99.81699999999999
 21
-96.7555
  0
LINE
  5
4DB
100
AcDbEntity
  8
BLACK
  6
CONTINUOUS
 62
  256
370
   -1
100
AcDbLine
 10
99.81699999999999
 20
-96.7555
 11
99.83329999999999
 21
-96.7441
  0
LINE
  5
4DC
100
AcDbEntity
  8
BLACK
  6
CONTINUOUS
 62
  256
370
   -1
100
AcDbLine
 10
99.83329999999999
 20
-96.7441
 11
99.83969999999999
 21
-96.7423
  0
LINE
  5
4DD
100
AcDbEntity
  8
BLACK
  6
CONTINUOUS
 62
  256
370
   -1
100
AcDbLine
 10
99.83969999999999
 20
-96.7423
 11
99.8455
 21
-96.739
  0
LINE
  5
4DE
100
AcDbEntity
  8
BLACK
  6
CONTINUOUS
 62
  256
370
   -1
100
AcDbLine
 10
99.8455
 20
-96.739
 11
99.8651
 21
-96.7355
  0
LINE
  5
4DF
100
AcDbEntity
  8
BLACK
  6
CONTINUOUS
 62
  256
370
   -1
100
AcDbLine
 10
99.8651
 20
-96.7355
 11
99.8844
 21
-96.7304
  0
LINE
  5
4E0
100
AcDbEntity
  8
BLACK
  6
CONTINUOUS
 62
  256
370
   -1
100
AcDbLine
 10
99.8844
 20
-96.7304
 11
99.9042
 21
-96.7321
  0
LINE
  5
4E1
100
AcDbEntity
  8
BLACK
  6
CONTINUOUS
 62
  256
370
   -1
100
AcDbLine
 10
99.9042
 20
-96.7321
 11
100.164
 21
-96.7321
  0
LINE
  5
4E2
100
AcDbEntity
  8
BLACK
  6
CONTINUOUS
 62
  256
370
   -1
100
AcDbLine
 10
100.164
 20
-96.7321
 11
100.257
 21
-96.6387
  0
LINE
  5
4E3
100
AcDbEntity
  8
BLACK
  6
CONTINUOUS
 62
  256
370
   -1
100
AcDbLine
 10
100.257
 20
-96.6387
 11
100.226
 21
-96.5526
  0
LINE
  5
4E4
100
AcDbEntity
  8
BLACK
  6
CONTINUOUS
 62
  256
370
   -1
100
AcDbLine
 10
100.226
 20
-96.5526
 11
100.226
 21
-96.41160000000001
  0
LINE
  5
4E5
100
AcDbEntity
  8
BLACK
  6
CONTINUOUS
 62
  256
370
   -1
100
AcDbLine
 10
100.226
 20
-96.41160000000001
 11
100.274
 21
-96.279
  0
LINE
  5
4E6
100
AcDbEntity
  8
BLACK
  6
CONTINUOUS
 62
  256
370
   -1
100
AcDbLine
 10
100.274
 20
-96.279
 11
100.365
 21
-96.17100000000001
  0
LINE
  5
4E7
100
AcDbEntity
  8
BLACK
  6
CONTINUOUS
 62
  256
370
   -1
100
AcDbLine
 10
100.365
 20
-96.17100000000001
 11
100.487
 21
-96.10039999999999
  0
LINE
  5
4E8
100
AcDbEntity
  8
BLACK
  6
CONTINUOUS
 62
  256
370
   -1
100
AcDbLine
 10
100.487
 20
-96.10039999999999
 11
100.626
 21
-96.0759
  0
LINE
  5
4E9
100
AcDbEntity
  8
BLACK
  6
CONTINUOUS
 62
  256
370
   -1
100
AcDbLine
 10
100.626
 20
-96.0759
 11
100.765
 21
-96.10039999999999
  0
LINE
  5
4EA
100
AcDbEntity
  8
BLACK
  6
CONTINUOUS
 62
  256
370
   -1
100
AcDbLine
 10
100.765
 20
-96.10039999999999
 11
100.887
 21
-96.17100000000001
  0
LINE
  5
4EB
100
AcDbEntity
  8
BLACK
  6
CONTINUOUS
 62
  256
370
   -1
100
AcDbLine
 10
100.887
 20
-96.17100000000001
 11
100.978
 21
-96.279
  0
LINE
  5
4EC
100
AcDbEntity
  8
BLACK
  6
CONTINUOUS
 62
  256
370
   -1
100
AcDbLine
 10
100.978
 20
-96.279
 11
101.026
 21
-96.41160000000001
  0
LINE
  5
4ED
100
AcDbEntity
  8
BLACK
  6
CONTINUOUS
 62
  256
370
   -1
100
AcDbLine
 10
101.026
 20
-96.41160000000001
 11
101.026
 21
-96.5526
  0
LINE
  5
4EE
100
AcDbEntity
  8
BLACK
  6
CONTINUOUS
 62
  256
370
   -1
100
AcDbLine
 10
101.026
 20
-96.5526
 11
100.978
 21
-96.68519999999999
  0
LINE
  5
4EF
100
AcDbEntity
  8
BLACK
  6
CONTINUOUS
 62
  256
370
   -1
100
AcDbLine
 10
100.978
 20
-96.68519999999999
 11
100.887
 21
-96.7932
  0
LINE
  5
4F0
100
AcDbEntity
  8
BLACK
  6
CONTINUOUS
 62
  256
370
   -1
100
AcDbLine
 10
100.887
 20
-96.7932
 11
100.765
 21
-96.8638
  0
LINE
  5
4F1
100
AcDbEntity
  8
BLACK
  6
CONTINUOUS
 62
  256
370
   -1
100
AcDbLine
 10
100.765
 20
-96.8638
 11
100.626
 21
-96.8883
  0
LINE
  5
4F2
100
AcDbEntity
  8
BLACK
  6
CONTINUOUS
 62
  256
370
   -1
100
AcDbLine
 10
100.626
 20
-96.8883
 11
100.487
 21
-96.8638
  0
LINE
  5
4F3
100
AcDbEntity
  8
BLACK
  6
CONTINUOUS
 62
  256
370
   -1
100
AcDbLine
 10
100.487
 20
-96.8638
 11
100.468
 21
-96.8526
  0
LINE
  5
4F4
100
AcDbEntity
  8
BLACK
  6
CONTINUOUS
 62
  256
370
   -1
100
AcDbLine
 10
100.468
 20
-96.8526
 11
100.337
 21
-96.98350000000001
  0
LINE
  5
4F5
100
AcDbEntity
  8
BLACK
  6
CONTINUOUS
 62
  256
370
   -1
100
AcDbLine
 10
100.337
 20
-96.98350000000001
 11
100.324
 21
-96.9988
  0
LINE
  5
4F6
100
AcDbEntity
  8
BLACK
  6
CONTINUOUS
 62
  256
370
   -1
100
AcDbLine
 10
100.324
 20
-96.9988
 11
100.307
 21
-97.0087
  0
LINE
  5
4F7
100
AcDbEntity
  8
BLACK
  6
CONTINUOUS
 62
  256
370
   -1
100
AcDbLine
 10
100.307
 20
-97.0087
 11
100.29
 21
-97.0201
  0
LINE
  5
4F8
100
AcDbEntity
  8
BLACK
  6
CONTINUOUS
 62
  256
370
   -1
100
AcDbLine
 10
100.29
 20
-97.0201
 11
100.284
 21
-97.0219
  0
LINE
  5
4F9
100
AcDbEntity
  8
BLACK
  6
CONTINUOUS
 62
  256
370
   -1
100
AcDbLine
 10
100.284
 20
-97.0219
 11
100.278
 21
-97.0252
  0
LINE
  5
4FA
100
AcDbEntity
  8
BLACK
  6
CONTINUOUS
 62
  256
370
   -1
100
AcDbLine
 10
100.278
 20
-97.0252
 11
100.258
 21
-97.0287
  0
LINE
  5
4FB
100
AcDbEntity
  8
BLACK
  6
CONTINUOUS
 62
  256
370
   -1
100
AcDbLine
 10
100.258
 20
-97.0287
 11
100.239
 21
-97.0338
  0
LINE
  5
4FC
100
AcDbEntity
  8
BLACK
  6
CONTINUOUS
 62
  256
370
   -1
100
AcDbLine
 10
100.239
 20
-97.0338
 11
100.219
 21
-97.0321
  0
LINE
  5
4FD
100
AcDbEntity
  8
BLACK
  6
CONTINUOUS
 62
  256
370
   -1
100
AcDbLine
 10
100.219
 20
-97.0321
 11
99.9598
 21
-97.0321
  0
LINE
  5
4FE
100
AcDbEntity
  8
BLACK
  6
CONTINUOUS
 62
  256
370
   -1
100
AcDbLine
 10
99.9598
 20
-97.0321
 11
99.9478
 21
-97.0441
  0
LINE
  5
4FF
100
AcDbEntity
  8
BLACK
  6
CONTINUOUS
 62
  256
370
   -1
100
AcDbLine
 10
99.9478
 20
-97.0441
 11
99.9478
 21
-106.295
  0
LINE
  5
500
100
AcDbEntity
  8
BLACK
  6
CONTINUOUS
 62
  256
370
   -1
100
AcDbLine
 10
99.9478
 20
-106.295
 11
101.601
 21
-107.948
  0
LINE
  5
501
100
AcDbEntity
  8
BLACK
  6
CONTINUOUS
 62
  256
370
   -1
100
AcDbLine
 10
101.601
 20
-107.948
 11
101.617
 21
-107.961
  0
LINE
  5
502
100
AcDbEntity
  8
BLACK
  6
CONTINUOUS
 62
  256
370
   -1
100
AcDbLine
 10
101.617
 20
-107.961
 11
101.627
 21
-107.978
  0
LINE
  5
503
100
AcDbEntity
  8
BLACK
  6
CONTINUOUS
 62
  256
370
   -1
100
AcDbLine
 10
101.627
 20
-107.978
 11
101.638
 21
-107.995
  0
LINE
  5
504
100
AcDbEntity
  8
BLACK
  6
CONTINUOUS
 62
  256
370
   -1
100
AcDbLine
 10
101.638
 20
-107.995
 11
101.64
 21
-108.001
  0
LINE
  5
505
100
AcDbEntity
  8
BLACK
  6
CONTINUOUS
 62
  256
370
   -1
100
AcDbLine
 10
101.64
 20
-108.001
 11
101.643
 21
-108.007
  0
LINE
  5
506
100
AcDbEntity
  8
BLACK
  6
CONTINUOUS
 62
  256
370
   -1
100
AcDbLine
 10
101.643
 20
-108.007
 11
101.647
 21
-108.027
  0
LINE
  5
507
100
AcDbEntity
  8
BLACK
  6
CONTINUOUS
 62
  256
370
   -1
100
AcDbLine
 10
101.647
 20
-108.027
 11
101.652
 21
-108.046
  0
LINE
  5
508
100
AcDbEntity
  8
BLACK
  6
CONTINUOUS
 62
  256
370
   -1
100
AcDbLine
 10
101.652
 20
-108.046
 11
101.65
 21
-108.066
  0
LINE
  5
509
100
AcDbEntity
  8
BLACK
  6
CONTINUOUS
 62
  256
370
   -1
100
AcDbLine
 10
101.65
 20
-108.066
 11
101.65
 21
-110.125
  0
LINE
  5
50A
100
AcDbEntity
  8
BLACK
  6
CONTINUOUS
 62
  256
370
   -1
100
AcDbLine
 10
101.65
 20
-110.125
 11
101.761
 21
-110.189
  0
LINE
  5
50B
100
AcDbEntity
  8
BLACK
  6
CONTINUOUS
 62
  256
370
   -1
100
AcDbLine
 10
105.413
 20
-108.189
 11
105.687
 21
-108.348
  0
LINE
  5
50C
100
AcDbEntity
  8
BLACK
  6
CONTINUOUS
 62
  256
370
   -1
100
AcDbLine
 10
105.687
 20
-108.348
 11
105.891
 21
-108.591
  0
LINE
  5
50D
100
AcDbEntity
  8
BLACK
  6
CONTINUOUS
 62
  256
370
   -1
100
AcDbLine
 10
105.891
 20
-108.591
 11
106
 21
-108.889
  0
LINE
  5
50E
100
AcDbEntity
  8
BLACK
  6
CONTINUOUS
 62
  256
370
   -1
100
AcDbLine
 10
106
 20
-108.889
 11
106
 21
-109.207
  0
LINE
  5
50F
100
AcDbEntity
  8
BLACK
  6
CONTINUOUS
 62
  256
370
   -1
100
AcDbLine
 10
106
 20
-109.207
 11
105.891
 21
-109.505
  0
LINE
  5
510
100
AcDbEntity
  8
BLACK
  6
CONTINUOUS
 62
  256
370
   -1
100
AcDbLine
 10
105.891
 20
-109.505
 11
105.687
 21
-109.748
  0
LINE
  5
511
100
AcDbEntity
  8
BLACK
  6
CONTINUOUS
 62
  256
370
   -1
100
AcDbLine
 10
105.687
 20
-109.748
 11
105.413
 21
-109.907
  0
LINE
  5
512
100
AcDbEntity
  8
BLACK
  6
CONTINUOUS
 62
  256
370
   -1
100
AcDbLine
 10
105.413
 20
-109.907
 11
105.1
 21
-109.962
  0
LINE
  5
513
100
AcDbEntity
  8
BLACK
  6
CONTINUOUS
 62
  256
370
   -1
100
AcDbLine
 10
105.1
 20
-109.962
 11
104.787
 21
-109.907
  0
LINE
  5
514
100
AcDbEntity
  8
BLACK
  6
CONTINUOUS
 62
  256
370
   -1
100
AcDbLine
 10
104.787
 20
-109.907
 11
104.513
 21
-109.748
  0
LINE
  5
515
100
AcDbEntity
  8
BLACK
  6
CONTINUOUS
 62
  256
370
   -1
100
AcDbLine
 10
104.513
 20
-109.748
 11
104.309
 21
-109.505
  0
LINE
  5
516
100
AcDbEntity
  8
BLACK
  6
CONTINUOUS
 62
  256
370
   -1
100
AcDbLine
 10
104.309
 20
-109.505
 11
104.2
 21
-109.207
  0
LINE
  5
517
100
AcDbEntity
  8
BLACK
  6
CONTINUOUS
 62
  256
370
   -1
100
AcDbLine
 10
104.2
 20
-109.207
 11
104.2
 21
-108.889
  0
LINE
  5
518
100
AcDbEntity
  8
BLACK
  6
CONTINUOUS
 62
  256
370
   -1
100
AcDbLine
 10
104.2
 20
-108.889
 11
104.309
 21
-108.591
  0
LINE
  5
519
100
AcDbEntity
  8
BLACK
  6
CONTINUOUS
 62
  256
370
   -1
100
AcDbLine
 10
104.309
 20
-108.591
 11
104.513
 21
-108.348
  0
LINE
  5
51A
100
AcDbEntity
  8
BLACK
  6
CONTINUOUS
 62
  256
370
   -1
100
AcDbLine
 10
104.513
 20
-108.348
 11
104.787
 21
-108.189
  0
LINE
  5
51B
100
AcDbEntity
  8
BLACK
  6
CONTINUOUS
 62
  256
370
   -1
100
AcDbLine
 10
104.787
 20
-108.189
 11
105.1
 21
-108.134
  0
LINE
  5
51C
100
AcDbEntity
  8
BLACK
  6
CONTINUOUS
 62
  256
370
   -1
100
AcDbLine
 10
105.1
 20
-108.134
 11
105.413
 21
-108.189
  0
LINE
  5
51D
100
AcDbEntity
  8
BLACK
  6
CONTINUOUS
 62
  256
370
   -1
100
AcDbLine
 10
110.523
 20
-108.189
 11
110.797
 21
-108.348
  0
LINE
  5
51E
100
AcDbEntity
  8
BLACK
  6
CONTINUOUS
 62
  256
370
   -1
100
AcDbLine
 10
110.797
 20
-108.348
 11
111.001
 21
-108.591
  0
LINE
  5
51F
100
AcDbEntity
  8
BLACK
  6
CONTINUOUS
 62
  256
370
   -1
100
AcDbLine
 10
111.001
 20
-108.591
 11
111.11
 21
-108.889
  0
LINE
  5
520
100
AcDbEntity
  8
BLACK
  6
CONTINUOUS
 62
  256
370
   -1
100
AcDbLine
 10
111.11
 20
-108.889
 11
111.11
 21
-109.207
  0
LINE
  5
521
100
AcDbEntity
  8
BLACK
  6
CONTINUOUS
 62
  256
370
   -1
100
AcDbLine
 10
111.11
 20
-109.207
 11
111.001
 21
-109.505
  0
LINE
  5
522
100
AcDbEntity
  8
BLACK
  6
CONTINUOUS
 62
  256
370
   -1
100
AcDbLine
 10
111.001
 20
-109.505
 11
110.797
 21
-109.748
  0
LINE
  5
523
100
AcDbEntity
  8
BLACK
  6
CONTINUOUS
 62
  256
370
   -1
100
AcDbLine
 10
110.797
 20
-109.748
 11
110.523
 21
-109.907
  0
LINE
  5
524
100
AcDbEntity
  8
BLACK
  6
CONTINUOUS
 62
  256
370
   -1
100
AcDbLine
 10
110.523
 20
-109.907
 11
110.21
 21
-109.962
  0
LINE
  5
525
100
AcDbEntity
  8
BLACK
  6
CONTINUOUS
 62
  256
370
   -1
100
AcDbLine
 10
110.21
 20
-109.962
 11
109.897
 21
-109.907
  0
LINE
  5
526
100
AcDbEntity
  8
BLACK
  6
CONTINUOUS
 62
  256
370
   -1
100
AcDbLine
 10
109.897
 20
-109.907
 11
109.623
 21
-109.748
  0
LINE
  5
527
100
AcDbEntity
  8
BLACK
  6
CONTINUOUS
 62
  256
370
   -1
100
AcDbLine
 10
109.623
 20
-109.748
 11
109.419
 21
-109.505
  0
LINE
  5
528
100
AcDbEntity
  8
BLACK
  6
CONTINUOUS
 62
  256
370
   -1
100
AcDbLine
 10
109.419
 20
-109.505
 11
109.31
 21
-109.207
  0
LINE
  5
529
100
AcDbEntity
  8
BLACK
  6
CONTINUOUS
 62
  256
370
   -1
100
AcDbLine
 10
109.31
 20
-109.207
 11
109.31
 21
-108.889
  0
LINE
  5
52A
100
AcDbEntity
  8
BLACK
  6
CONTINUOUS
 62
  256
370
   -1
100
AcDbLine
 10
109.31
 20
-108.889
 11
109.419
 21
-108.591
  0
LINE
  5
52B
100
AcDbEntity
  8
BLACK
  6
CONTINUOUS
 62
  256
370
   -1
100
AcDbLine
 10
109.419
 20
-108.591
 11
109.623
 21
-108.348
  0
LINE
  5
52C
100
AcDbEntity
  8
BLACK
  6
CONTINUOUS
 62
  256
370
   -1
100
AcDbLine
 10
109.623
 20
-108.348
 11
109.897
 21
-108.189
  0
LINE
  5
52D
100
AcDbEntity
  8
BLACK
  6
CONTINUOUS
 62
  256
370
   -1
100
AcDbLine
 10
109.897
 20
-108.189
 11
110.21
 21
-108.134
  0
LINE
  5
52E
100
AcDbEntity
  8
BLACK
  6
CONTINUOUS
 62
  256
370
   -1
100
AcDbLine
 10
110.21
 20
-108.134
 11
110.523
 21
-108.189
  0
LINE
  5
52F
100
AcDbEntity
  8
BLACK
  6
CONTINUOUS
 62
  256
370
   -1
100
AcDbLine
 10
100.353
 20
-108.189
 11
100.627
 21
-108.348
  0
LINE
  5
530
100
AcDbEntity
  8
BLACK
  6
CONTINUOUS
 62
  256
370
   -1
100
AcDbLine
 10
100.627
 20
-108.348
 11
100.831
 21
-108.591
  0
LINE
  5
531
100
AcDbEntity
  8
BLACK
  6
CONTINUOUS
 62
  256
370
   -1
100
AcDbLine
 10
100.831
 20
-108.591
 11
100.94
 21
-108.889
  0
LINE
  5
532
100
AcDbEntity
  8
BLACK
  6
CONTINUOUS
 62
  256
370
   -1
100
AcDbLine
 10
100.94
 20
-108.889
 11
100.94
 21
-109.207
  0
LINE
  5
533
100
AcDbEntity
  8
BLACK
  6
CONTINUOUS
 62
  256
370
   -1
100
AcDbLine
 10
100.94
 20
-109.207
 11
100.831
 21
-109.505
  0
LINE
  5
534
100
AcDbEntity
  8
BLACK
  6
CONTINUOUS
 62
  256
370
   -1
100
AcDbLine
 10
100.831
 20
-109.505
 11
100.627
 21
-109.748
  0
LINE
  5
535
100
AcDbEntity
  8
BLACK
  6
CONTINUOUS
 62
  256
370
   -1
100
AcDbLine
 10
100.627
 20
-109.748
 11
100.353
 21
-109.907
  0
LINE
  5
536
100
AcDbEntity
  8
BLACK
  6
CONTINUOUS
 62
  256
370
   -1
100
AcDbLine
 10
100.353
 20
-109.907
 11
100.04
 21
-109.962
  0
LINE
  5
537
100
AcDbEntity
  8
BLACK
  6
CONTINUOUS
 62
  256
370
   -1
100
AcDbLine
 10
100.04
 20
-109.962
 11
99.7274
 21
-109.907
  0
LINE
  5
538
100
AcDbEntity
  8
BLACK
  6
CONTINUOUS
 62
  256
370
   -1
100
AcDbLine
 10
99.7274
 20
-109.907
 11
99.4526
 21
-109.748
  0
LINE
  5
539
100
AcDbEntity
  8
BLACK
  6
CONTINUOUS
 62
  256
370
   -1
100
AcDbLine
 10
99.4526
 20
-109.748
 11
99.2486
 21
-109.505
  0
LINE
  5
53A
100
AcDbEntity
  8
BLACK
  6
CONTINUOUS
 62
  256
370
   -1
100
AcDbLine
 10
99.2486
 20
-109.505
 11
99.14
 21
-109.207
  0
LINE
  5
53B
100
AcDbEntity
  8
BLACK
  6
CONTINUOUS
 62
  256
370
   -1
100
AcDbLine
 10
99.14
 20
-109.207
 11
99.14
 21
-108.889
  0
LINE
  5
53C
100
AcDbEntity
  8
BLACK
  6
CONTINUOUS
 62
  256
370
   -1
100
AcDbLine
 10
99.14
 20
-108.889
 11
99.2486
 21
-108.591
  0
LINE
  5
53D
100
AcDbEntity
  8
BLACK
  6
CONTINUOUS
 62
  256
370
   -1
100
AcDbLine
 10
99.2486
 20
-108.591
 11
99.4526
 21
-108.348
  0
LINE
  5
53E
100
AcDbEntity
  8
BLACK
  6
CONTINUOUS
 62
  256
370
   -1
100
AcDbLine
 10
99.4526
 20
-108.348
 11
99.7274
 21
-108.189
  0
LINE
  5
53F
100
AcDbEntity
  8
BLACK
  6
CONTINUOUS
 62
  256
370
   -1
100
AcDbLine
 10
99.7274
 20
-108.189
 11
100.04
 21
-108.134
  0
LINE
  5
540
100
AcDbEntity
  8
BLACK
  6
CONTINUOUS
 62
  256
370
   -1
100
AcDbLine
 10
100.04
 20
-108.134
 11
100.353
 21
-108.189
  0
LINE
  5
541
100
AcDbEntity
  8
BLACK
  6
CONTINUOUS
 62
  256
370
   -1
100
AcDbLine
 10
148.453
 20
-108.189
 11
148.727
 21
-108.348
  0
LINE
  5
542
100
AcDbEntity
  8
BLACK
  6
CONTINUOUS
 62
  256
370
   -1
100
AcDbLine
 10
148.727
 20
-108.348
 11
148.931
 21
-108.591
  0
LINE
  5
543
100
AcDbEntity
  8
BLACK
  6
CONTINUOUS
 62
  256
370
   -1
100
AcDbLine
 10
148.931
 20
-108.591
 11
149.04
 21
-108.889
  0
LINE
  5
544
100
AcDbEntity
  8
BLACK
  6
CONTINUOUS
 62
  256
370
   -1
100
AcDbLine
 10
149.04
 20
-108.889
 11
149.04
 21
-109.207
  0
LINE
  5
545
100
AcDbEntity
  8
BLACK
  6
CONTINUOUS
 62
  256
370
   -1
100
AcDbLine
 10
149.04
 20
-109.207
 11
148.931
 21
-109.505
  0
LINE
  5
546
100
AcDbEntity
  8
BLACK
  6
CONTINUOUS
 62
  256
370
   -1
100
AcDbLine
 10
148.931
 20
-109.505
 11
148.727
 21
-109.748
  0
LINE
  5
547
100
AcDbEntity
  8
BLACK
  6
CONTINUOUS
 62
  256
370
   -1
100
AcDbLine
 10
148.727
 20
-109.748
 11
148.453
 21
-109.907
  0
LINE
  5
548
100
AcDbEntity
  8
BLACK
  6
CONTINUOUS
 62
  256
370
   -1
100
AcDbLine
 10
148.453
 20
-109.907
 11
148.14
 21
-109.962
  0
LINE
  5
549
100
AcDbEntity
  8
BLACK
  6
CONTINUOUS
 62
  256
370
   -1
100
AcDbLine
 10
148.14
 20
-109.962
 11
147.827
 21
-109.907
  0
LINE
  5
54A
100
AcDbEntity
  8
BLACK
  6
CONTINUOUS
 62
  256
370
   -1
100
AcDbLine
 10
147.827
 20
-109.907
 11
147.553
 21
-109.748
  0
LINE
  5
54B
100
AcDbEntity
  8
BLACK
  6
CONTINUOUS
 62
  256
370
   -1
100
AcDbLine
 10
147.553
 20
-109.748
 11
147.349
 21
-109.505
  0
LINE
  5
54C
100
AcDbEntity
  8
BLACK
  6
CONTINUOUS
 62
  256
370
   -1
100
AcDbLine
 10
147.349
 20
-109.505
 11
147.24
 21
-109.207
  0
LINE
  5
54D
100
AcDbEntity
  8
BLACK
  6
CONTINUOUS
 62
  256
370
   -1
100
AcDbLine
 10
147.24
 20
-109.207
 11
147.24
 21
-108.889
  0
LINE
  5
54E
100
AcDbEntity
  8
BLACK
  6
CONTINUOUS
 62
  256
370
   -1
100
AcDbLine
 10
147.24
 20
-108.889
 11
147.349
 21
-108.591
  0
LINE
  5
54F
100
AcDbEntity
  8
BLACK
  6
CONTINUOUS
 62
  256
370
   -1
100
AcDbLine
 10
147.349
 20
-108.591
 11
147.553
 21
-108.348
  0
LINE
  5
550
100
AcDbEntity
  8
BLACK
  6
CONTINUOUS
 62
  256
370
   -1
100
AcDbLine
 10
147.553
 20
-108.348
 11
147.827
 21
-108.189
  0
LINE
  5
551
100
AcDbEntity
  8
BLACK
  6
CONTINUOUS
 62
  256
370
   -1
100
AcDbLine
 10
147.827
 20
-108.189
 11
148.14
 21
-108.134
  0
LINE
  5
552
100
AcDbEntity
  8
BLACK
  6
CONTINUOUS
 62
  256
370
   -1
100
AcDbLine
 10
148.14
 20
-108.134
 11
148.453
 21
-108.189
  0
LINE
  5
553
100
AcDbEntity
  8
BLACK
  6
CONTINUOUS
 62
  256
370
   -1
100
AcDbLine
 10
153.513
 20
-108.189
 11
153.787
 21
-108.348
  0
LINE
  5
554
100
AcDbEntity
  8
BLACK
  6
CONTINUOUS
 62
  256
370
   -1
100
AcDbLine
 10
153.787
 20
-108.348
 11
153.991
 21
-108.591
  0
LINE
  5
555
100
AcDbEntity
  8
BLACK
  6
CONTINUOUS
 62
  256
370
   -1
100
AcDbLine
 10
153.991
 20
-108.591
 11
154.1
 21
-108.889
  0
LINE
  5
556
100
AcDbEntity
  8
BLACK
  6
CONTINUOUS
 62
  256
370
   -1
100
AcDbLine
 10
154.1
 20
-108.889
 11
154.1
 21
-109.207
  0
LINE
  5
557
100
AcDbEntity
  8
BLACK
  6
CONTINUOUS
 62
  256
370
   -1
100
AcDbLine
 10
154.1
 20
-109.207
 11
153.991
 21
-109.505
  0
LINE
  5
558
100
AcDbEntity
  8
BLACK
  6
CONTINUOUS
 62
  256
370
   -1
100
AcDbLine
 10
153.991
 20
-109.505
 11
153.787
 21
-109.748
  0
LINE
  5
559
100
AcDbEntity
  8
BLACK
  6
CONTINUOUS
 62
  256
370
   -1
100
AcDbLine
 10
153.787
 20
-109.748
 11
153.513
 21
-109.907
  0
LINE
  5
55A
100
AcDbEntity
  8
BLACK
  6
CONTINUOUS
 62
  256
370
   -1
100
AcDbLine
 10
153.513
 20
-109.907
 11
153.2
 21
-109.962
  0
LINE
  5
55B
100
AcDbEntity
  8
BLACK
  6
CONTINUOUS
 62
  256
370
   -1
100
AcDbLine
 10
153.2
 20
-109.962
 11
152.887
 21
-109.907
  0
LINE
  5
55C
100
AcDbEntity
  8
BLACK
  6
CONTINUOUS
 62
  256
370
   -1
100
AcDbLine
 10
152.887
 20
-109.907
 11
152.613
 21
-109.748
  0
LINE
  5
55D
100
AcDbEntity
  8
BLACK
  6
CONTINUOUS
 62
  256
370
   -1
100
AcDbLine
 10
152.613
 20
-109.748
 11
152.409
 21
-109.505
  0
LINE
  5
55E
100
AcDbEntity
  8
BLACK
  6
CONTINUOUS
 62
  256
370
   -1
100
AcDbLine
 10
152.409
 20
-109.505
 11
152.3
 21
-109.207
  0
LINE
  5
55F
100
AcDbEntity
  8
BLACK
  6
CONTINUOUS
 62
  256
370
   -1
100
AcDbLine
 10
152.3
 20
-109.207
 11
152.3
 21
-108.889
  0
LINE
  5
560
100
AcDbEntity
  8
BLACK
  6
CONTINUOUS
 62
  256
370
   -1
100
AcDbLine
 10
152.3
 20
-108.889
 11
152.409
 21
-108.591
  0
LINE
  5
561
100
AcDbEntity
  8
BLACK
  6
CONTINUOUS
 62
  256
370
   -1
100
AcDbLine
 10
152.409
 20
-108.591
 11
152.613
 21
-108.348
  0
LINE
  5
562
100
AcDbEntity
  8
BLACK
  6
CONTINUOUS
 62
  256
370
   -1
100
AcDbLine
 10
152.613
 20
-108.348
 11
152.887
 21
-108.189
  0
LINE
  5
563
100
AcDbEntity
  8
BLACK
  6
CONTINUOUS
 62
  256
370
   -1
100
AcDbLine
 10
152.887
 20
-108.189
 11
153.2
 21
-108.134
  0
LINE
  5
564
100
AcDbEntity
  8
BLACK
  6
CONTINUOUS
 62
  256
370
   -1
100
AcDbLine
 10
153.2
 20
-108.134
 11
153.513
 21
-108.189
  0
LINE
  5
565
100
AcDbEntity
  8
BLACK
  6
CONTINUOUS
 62
  256
370
   -1
100
AcDbLine
 10
158.623
 20
-108.189
 11
158.897
 21
-108.348
  0
LINE
  5
566
100
AcDbEntity
  8
BLACK
  6
CONTINUOUS
 62
  256
370
   -1
100
AcDbLine
 10
158.897
 20
-108.348
 11
159.101
 21
-108.591
  0
LINE
  5
567
100
AcDbEntity
  8
BLACK
  6
CONTINUOUS
 62
  256
370
   -1
100
AcDbLine
 10
159.101
 20
-108.591
 11
159.21
 21
-108.889
  0
LINE
  5
568
100
AcDbEntity
  8
BLACK
  6
CONTINUOUS
 62
  256
370
   -1
100
AcDbLine
 10
159.21
 20
-108.889
 11
159.21
 21
-109.207
  0
LINE
  5
569
100
AcDbEntity
  8
BLACK
  6
CONTINUOUS
 62
  256
370
   -1
100
AcDbLine
 10
159.21
 20
-109.207
 11
159.101
 21
-109.505
  0
LINE
  5
56A
100
AcDbEntity
  8
BLACK
  6
CONTINUOUS
 62
  256
370
   -1
100
AcDbLine
 10
159.101
 20
-109.505
 11
158.897
 21
-109.748
  0
LINE
  5
56B
100
AcDbEntity
  8
BLACK
  6
CONTINUOUS
 62
  256
370
   -1
100
AcDbLine
 10
158.897
 20
-109.748
 11
158.623
 21
-109.907
  0
LINE
  5
56C
100
AcDbEntity
  8
BLACK
  6
CONTINUOUS
 62
  256
370
   -1
100
AcDbLine
 10
158.623
 20
-109.907
 11
158.31
 21
-109.962
  0
LINE
  5
56D
100
AcDbEntity
  8
BLACK
  6
CONTINUOUS
 62
  256
370
   -1
100
AcDbLine
 10
158.31
 20
-109.962
 11
157.997
 21
-109.907
  0
LINE
  5
56E
100
AcDbEntity
  8
BLACK
  6
CONTINUOUS
 62
  256
370
   -1
100
AcDbLine
 10
157.997
 20
-109.907
 11
157.723
 21
-109.748
  0
LINE
  5
56F
100
AcDbEntity
  8
BLACK
  6
CONTINUOUS
 62
  256
370
   -1
100
AcDbLine
 10
157.723
 20
-109.748
 11
157.519
 21
-109.505
  0
LINE
  5
570
100
AcDbEntity
  8
BLACK
  6
CONTINUOUS
 62
  256
370
   -1
100
AcDbLine
 10
157.519
 20
-109.505
 11
157.41
 21
-109.207
  0
LINE
  5
571
100
AcDbEntity
  8
BLACK
  6
CONTINUOUS
 62
  256
370
   -1
100
AcDbLine
 10
157.41
 20
-109.207
 11
157.41
 21
-108.889
  0
LINE
  5
572
100
AcDbEntity
  8
BLACK
  6
CONTINUOUS
 62
  256
370
   -1
100
AcDbLine
 10
157.41
 20
-108.889
 11
157.519
 21
-108.591
  0
LINE
  5
573
100
AcDbEntity
  8
BLACK
  6
CONTINUOUS
 62
  256
370
   -1
100
AcDbLine
 10
157.519
 20
-108.591
 11
157.723
 21
-108.348
  0
LINE
  5
574
100
AcDbEntity
  8
BLACK
  6
CONTINUOUS
 62
  256
370
   -1
100
AcDbLine
 10
157.723
 20
-108.348
 11
157.997
 21
-108.189
  0
LINE
  5
575
100
AcDbEntity
  8
BLACK
  6
CONTINUOUS
 62
  256
370
   -1
100
AcDbLine
 10
157.997
 20
-108.189
 11
158.31
 21
-108.134
  0
LINE
  5
576
100
AcDbEntity
  8
BLACK
  6
CONTINUOUS
 62
  256
370
   -1
100
AcDbLine
 10
158.31
 20
-108.134
 11
158.623
 21
-108.189
  0
LINE
  5
577
100
AcDbEntity
  8
BLACK
  6
CONTINUOUS
 62
  256
370
   -1
100
AcDbLine
 10
107.639
 20
-108.418
 11
107.761
 21
-108.489
  0
LINE
  5
578
100
AcDbEntity
  8
BLACK
  6
CONTINUOUS
 62
  256
370
   -1
100
AcDbLine
 10
107.761
 20
-108.489
 11
107.852
 21
-108.597
  0
LINE
  5
579
100
AcDbEntity
  8
BLACK
  6
CONTINUOUS
 62
  256
370
   -1
100
AcDbLine
 10
107.852
 20
-108.597
 11
107.9
 21
-108.729
  0
LINE
  5
57A
100
AcDbEntity
  8
BLACK
  6
CONTINUOUS
 62
  256
370
   -1
100
AcDbLine
 10
107.9
 20
-108.729
 11
107.9
 21
-108.871
  0
LINE
  5
57B
100
AcDbEntity
  8
BLACK
  6
CONTINUOUS
 62
  256
370
   -1
100
AcDbLine
 10
107.9
 20
-108.871
 11
107.852
 21
-109.003
  0
LINE
  5
57C
100
AcDbEntity
  8
BLACK
  6
CONTINUOUS
 62
  256
370
   -1
100
AcDbLine
 10
107.852
 20
-109.003
 11
107.761
 21
-109.111
  0
LINE
  5
57D
100
AcDbEntity
  8
BLACK
  6
CONTINUOUS
 62
  256
370
   -1
100
AcDbLine
 10
107.761
 20
-109.111
 11
107.639
 21
-109.182
  0
LINE
  5
57E
100
AcDbEntity
  8
BLACK
  6
CONTINUOUS
 62
  256
370
   -1
100
AcDbLine
 10
107.639
 20
-109.182
 11
107.5
 21
-109.206
  0
LINE
  5
57F
100
AcDbEntity
  8
BLACK
  6
CONTINUOUS
 62
  256
370
   -1
100
AcDbLine
 10
107.5
 20
-109.206
 11
107.361
 21
-109.182
  0
LINE
  5
580
100
AcDbEntity
  8
BLACK
  6
CONTINUOUS
 62
  256
370
   -1
100
AcDbLine
 10
107.361
 20
-109.182
 11
107.239
 21
-109.111
  0
LINE
  5
581
100
AcDbEntity
  8
BLACK
  6
CONTINUOUS
 62
  256
370
   -1
100
AcDbLine
 10
107.239
 20
-109.111
 11
107.148
 21
-109.003
  0
LINE
  5
582
100
AcDbEntity
  8
BLACK
  6
CONTINUOUS
 62
  256
370
   -1
100
AcDbLine
 10
107.148
 20
-109.003
 11
107.1
 21
-108.871
  0
LINE
  5
583
100
AcDbEntity
  8
BLACK
  6
CONTINUOUS
 62
  256
370
   -1
100
AcDbLine
 10
107.1
 20
-108.871
 11
107.1
 21
-108.729
  0
LINE
  5
584
100
AcDbEntity
  8
BLACK
  6
CONTINUOUS
 62
  256
370
   -1
100
AcDbLine
 10
107.1
 20
-108.729
 11
107.148
 21
-108.597
  0
LINE
  5
585
100
AcDbEntity
  8
BLACK
  6
CONTINUOUS
 62
  256
370
   -1
100
AcDbLine
 10
107.148
 20
-108.597
 11
107.239
 21
-108.489
  0
LINE
  5
586
100
AcDbEntity
  8
BLACK
  6
CONTINUOUS
 62
  256
370
   -1
100
AcDbLine
 10
107.239
 20
-108.489
 11
107.361
 21
-108.418
  0
LINE
  5
587
100
AcDbEntity
  8
BLACK
  6
CONTINUOUS
 62
  256
370
   -1
100
AcDbLine
 10
107.361
 20
-108.418
 11
107.5
 21
-108.394
  0
LINE
  5
588
100
AcDbEntity
  8
BLACK
  6
CONTINUOUS
 62
  256
370
   -1
100
AcDbLine
 10
107.5
 20
-108.394
 11
107.639
 21
-108.418
  0
LINE
  5
589
100
AcDbEntity
  8
BLACK
  6
CONTINUOUS
 62
  256
370
   -1
100
AcDbLine
 10
113.439
 20
-106.718
 11
113.561
 21
-106.789
  0
LINE
  5
58A
100
AcDbEntity
  8
BLACK
  6
CONTINUOUS
 62
  256
370
   -1
100
AcDbLine
 10
113.561
 20
-106.789
 11
113.652
 21
-106.897
  0
LINE
  5
58B
100
AcDbEntity
  8
BLACK
  6
CONTINUOUS
 62
  256
370
   -1
100
AcDbLine
 10
113.652
 20
-106.897
 11
113.7
 21
-107.029
  0
LINE
  5
58C
100
AcDbEntity
  8
BLACK
  6
CONTINUOUS
 62
  256
370
   -1
100
AcDbLine
 10
113.7
 20
-107.029
 11
113.7
 21
-107.171
  0
LINE
  5
58D
100
AcDbEntity
  8
BLACK
  6
CONTINUOUS
 62
  256
370
   -1
100
AcDbLine
 10
113.7
 20
-107.171
 11
113.652
 21
-107.303
  0
LINE
  5
58E
100
AcDbEntity
  8
BLACK
  6
CONTINUOUS
 62
  256
370
   -1
100
AcDbLine
 10
113.652
 20
-107.303
 11
113.561
 21
-107.411
  0
LINE
  5
58F
100
AcDbEntity
  8
BLACK
  6
CONTINUOUS
 62
  256
370
   -1
100
AcDbLine
 10
113.561
 20
-107.411
 11
113.439
 21
-107.482
  0
LINE
  5
590
100
AcDbEntity
  8
BLACK
  6
CONTINUOUS
 62
  256
370
   -1
100
AcDbLine
 10
113.439
 20
-107.482
 11
113.3
 21
-107.506
  0
LINE
  5
591
100
AcDbEntity
  8
BLACK
  6
CONTINUOUS
 62
  256
370
   -1
100
AcDbLine
 10
113.3
 20
-107.506
 11
113.161
 21
-107.482
  0
LINE
  5
592
100
AcDbEntity
  8
BLACK
  6
CONTINUOUS
 62
  256
370
   -1
100
AcDbLine
 10
113.161
 20
-107.482
 11
113.039
 21
-107.411
  0
LINE
  5
593
100
AcDbEntity
  8
BLACK
  6
CONTINUOUS
 62
  256
370
   -1
100
AcDbLine
 10
113.039
 20
-107.411
 11
112.948
 21
-107.303
  0
LINE
  5
594
100
AcDbEntity
  8
BLACK
  6
CONTINUOUS
 62
  256
370
   -1
100
AcDbLine
 10
112.948
 20
-107.303
 11
112.9
 21
-107.171
  0
LINE
  5
595
100
AcDbEntity
  8
BLACK
  6
CONTINUOUS
 62
  256
370
   -1
100
AcDbLine
 10
112.9
 20
-107.171
 11
112.9
 21
-107.029
  0
LINE
  5
596
100
AcDbEntity
  8
BLACK
  6
CONTINUOUS
 62
  256
370
   -1
100
AcDbLine
 10
112.9
 20
-107.029
 11
112.948
 21
-106.897
  0
LINE
  5
597
100
AcDbEntity
  8
BLACK
  6
CONTINUOUS
 62
  256
370
   -1
100
AcDbLine
 10
112.948
 20
-106.897
 11
113.039
 21
-106.789
  0
LINE
  5
598
100
AcDbEntity
  8
BLACK
  6
CONTINUOUS
 62
  256
370
   -1
100
AcDbLine
 10
113.039
 20
-106.789
 11
113.161
 21
-106.718
  0
LINE
  5
599
100
AcDbEntity
  8
BLACK
  6
CONTINUOUS
 62
  256
370
   -1
100
AcDbLine
 10
113.161
 20
-106.718
 11
113.3
 21
-106.694
  0
LINE
  5
59A
100
AcDbEntity
  8
BLACK
  6
CONTINUOUS
 62
  256
370
   -1
100
AcDbLine
 10
113.3
 20
-106.694
 11
113.439
 21
-106.718
  0
LINE
  5
59B
100
AcDbEntity
  8
BLACK
  6
CONTINUOUS
 62
  256
370
   -1
100
AcDbLine
 10
100.789
 20
-97.2381
 11
100.911
 21
-97.3087
  0
LINE
  5
59C
100
AcDbEntity
  8
BLACK
  6
CONTINUOUS
 62
  256
370
   -1
100
AcDbLine
 10
100.911
 20
-97.3087
 11
101.002
 21
-97.41670000000001
  0
LINE
  5
59D
100
AcDbEntity
  8
BLACK
  6
CONTINUOUS
 62
  256
370
   -1
100
AcDbLine
 10
101.002
 20
-97.41670000000001
 11
101.05
 21
-97.5493
  0
LINE
  5
59E
100
AcDbEntity
  8
BLACK
  6
CONTINUOUS
 62
  256
370
   -1
100
AcDbLine
 10
101.05
 20
-97.5493
 11
101.05
 21
-97.69029999999999
  0
LINE
  5
59F
100
AcDbEntity
  8
BLACK
  6
CONTINUOUS
 62
  256
370
   -1
100
AcDbLine
 10
101.05
 20
-97.69029999999999
 11
101.002
 21
-97.8229
  0
LINE
  5
5A0
100
AcDbEntity
  8
BLACK
  6
CONTINUOUS
 62
  256
370
   -1
100
AcDbLine
 10
101.002
 20
-97.8229
 11
100.911
 21
-97.931
  0
LINE
  5
5A1
100
AcDbEntity
  8
BLACK
  6
CONTINUOUS
 62
  256
370
   -1
100
AcDbLine
 10
100.911
 20
-97.931
 11
100.789
 21
-98.00149999999999
  0
LINE
  5
5A2
100
AcDbEntity
  8
BLACK
  6
CONTINUOUS
 62
  256
370
   -1
100
AcDbLine
 10
100.789
 20
-98.00149999999999
 11
100.7
 21
-98.0172
  0
LINE
  5
5A3
100
AcDbEntity
  8
BLACK
  6
CONTINUOUS
 62
  256
370
   -1
100
AcDbLine
 10
100.7
 20
-98.0172
 11
100.7
 21
-105.789
  0
LINE
  5
5A4
100
AcDbEntity
  8
BLACK
  6
CONTINUOUS
 62
  256
370
   -1
100
AcDbLine
 10
100.7
 20
-105.789
 11
101.092
 21
-106.181
  0
LINE
  5
5A5
100
AcDbEntity
  8
BLACK
  6
CONTINUOUS
 62
  256
370
   -1
100
AcDbLine
 10
101.092
 20
-106.181
 11
101.111
 21
-106.169
  0
LINE
  5
5A6
100
AcDbEntity
  8
BLACK
  6
CONTINUOUS
 62
  256
370
   -1
100
AcDbLine
 10
101.111
 20
-106.169
 11
101.25
 21
-106.145
  0
LINE
  5
5A7
100
AcDbEntity
  8
BLACK
  6
CONTINUOUS
 62
  256
370
   -1
100
AcDbLine
 10
101.25
 20
-106.145
 11
101.389
 21
-106.169
  0
LINE
  5
5A8
100
AcDbEntity
  8
BLACK
  6
CONTINUOUS
 62
  256
370
   -1
100
AcDbLine
 10
101.389
 20
-106.169
 11
101.511
 21
-106.24
  0
LINE
  5
5A9
100
AcDbEntity
  8
BLACK
  6
CONTINUOUS
 62
  256
370
   -1
100
AcDbLine
 10
101.511
 20
-106.24
 11
101.602
 21
-106.348
  0
LINE
  5
5AA
100
AcDbEntity
  8
BLACK
  6
CONTINUOUS
 62
  256
370
   -1
100
AcDbLine
 10
101.602
 20
-106.348
 11
101.65
 21
-106.481
  0
LINE
  5
5AB
100
AcDbEntity
  8
BLACK
  6
CONTINUOUS
 62
  256
370
   -1
100
AcDbLine
 10
101.65
 20
-106.481
 11
101.65
 21
-106.622
  0
LINE
  5
5AC
100
AcDbEntity
  8
BLACK
  6
CONTINUOUS
 62
  256
370
   -1
100
AcDbLine
 10
101.65
 20
-106.622
 11
101.602
 21
-106.754
  0
LINE
  5
5AD
100
AcDbEntity
  8
BLACK
  6
CONTINUOUS
 62
  256
370
   -1
100
AcDbLine
 10
101.602
 20
-106.754
 11
101.511
 21
-106.862
  0
LINE
  5
5AE
100
AcDbEntity
  8
BLACK
  6
CONTINUOUS
 62
  256
370
   -1
100
AcDbLine
 10
101.511
 20
-106.862
 11
101.389
 21
-106.933
  0
LINE
  5
5AF
100
AcDbEntity
  8
BLACK
  6
CONTINUOUS
 62
  256
370
   -1
100
AcDbLine
 10
101.389
 20
-106.933
 11
101.25
 21
-106.957
  0
LINE
  5
5B0
100
AcDbEntity
  8
BLACK
  6
CONTINUOUS
 62
  256
370
   -1
100
AcDbLine
 10
101.25
 20
-106.957
 11
101.111
 21
-106.933
  0
LINE
  5
5B1
100
AcDbEntity
  8
BLACK
  6
CONTINUOUS
 62
  256
370
   -1
100
AcDbLine
 10
101.111
 20
-106.933
 11
100.989
 21
-106.862
  0
LINE
  5
5B2
100
AcDbEntity
  8
BLACK
  6
CONTINUOUS
 62
  256
370
   -1
100
AcDbLine
 10
100.989
 20
-106.862
 11
100.898
 21
-106.754
  0
LINE
  5
5B3
100
AcDbEntity
  8
BLACK
  6
CONTINUOUS
 62
  256
370
   -1
100
AcDbLine
 10
100.898
 20
-106.754
 11
100.85
 21
-106.622
  0
LINE
  5
5B4
100
AcDbEntity
  8
BLACK
  6
CONTINUOUS
 62
  256
370
   -1
100
AcDbLine
 10
100.85
 20
-106.622
 11
100.85
 21
-106.481
  0
LINE
  5
5B5
100
AcDbEntity
  8
BLACK
  6
CONTINUOUS
 62
  256
370
   -1
100
AcDbLine
 10
100.85
 20
-106.481
 11
100.881
 21
-106.395
  0
LINE
  5
5B6
100
AcDbEntity
  8
BLACK
  6
CONTINUOUS
 62
  256
370
   -1
100
AcDbLine
 10
100.881
 20
-106.395
 11
100.449
 21
-105.962
  0
LINE
  5
5B7
100
AcDbEntity
  8
BLACK
  6
CONTINUOUS
 62
  256
370
   -1
100
AcDbLine
 10
100.449
 20
-105.962
 11
100.433
 21
-105.949
  0
LINE
  5
5B8
100
AcDbEntity
  8
BLACK
  6
CONTINUOUS
 62
  256
370
   -1
100
AcDbLine
 10
100.433
 20
-105.949
 11
100.423
 21
-105.932
  0
LINE
  5
5B9
100
AcDbEntity
  8
BLACK
  6
CONTINUOUS
 62
  256
370
   -1
100
AcDbLine
 10
100.423
 20
-105.932
 11
100.412
 21
-105.916
  0
LINE
  5
5BA
100
AcDbEntity
  8
BLACK
  6
CONTINUOUS
 62
  256
370
   -1
100
AcDbLine
 10
100.412
 20
-105.916
 11
100.41
 21
-105.909
  0
LINE
  5
5BB
100
AcDbEntity
  8
BLACK
  6
CONTINUOUS
 62
  256
370
   -1
100
AcDbLine
 10
100.41
 20
-105.909
 11
100.407
 21
-105.903
  0
LINE
  5
5BC
100
AcDbEntity
  8
BLACK
  6
CONTINUOUS
 62
  256
370
   -1
100
AcDbLine
 10
100.407
 20
-105.903
 11
100.403
 21
-105.884
  0
LINE
  5
5BD
100
AcDbEntity
  8
BLACK
  6
CONTINUOUS
 62
  256
370
   -1
100
AcDbLine
 10
100.403
 20
-105.884
 11
100.398
 21
-105.864
  0
LINE
  5
5BE
100
AcDbEntity
  8
BLACK
  6
CONTINUOUS
 62
  256
370
   -1
100
AcDbLine
 10
100.398
 20
-105.864
 11
100.4
 21
-105.845
  0
LINE
  5
5BF
100
AcDbEntity
  8
BLACK
  6
CONTINUOUS
 62
  256
370
   -1
100
AcDbLine
 10
100.4
 20
-105.845
 11
100.4
 21
-97.93729999999999
  0
LINE
  5
5C0
100
AcDbEntity
  8
BLACK
  6
CONTINUOUS
 62
  256
370
   -1
100
AcDbLine
 10
100.4
 20
-97.93729999999999
 11
100.389
 21
-97.931
  0
LINE
  5
5C1
100
AcDbEntity
  8
BLACK
  6
CONTINUOUS
 62
  256
370
   -1
100
AcDbLine
 10
100.389
 20
-97.931
 11
100.298
 21
-97.8229
  0
LINE
  5
5C2
100
AcDbEntity
  8
BLACK
  6
CONTINUOUS
 62
  256
370
   -1
100
AcDbLine
 10
100.298
 20
-97.8229
 11
100.25
 21
-97.69029999999999
  0
LINE
  5
5C3
100
AcDbEntity
  8
BLACK
  6
CONTINUOUS
 62
  256
370
   -1
100
AcDbLine
 10
100.25
 20
-97.69029999999999
 11
100.25
 21
-97.5493
  0
LINE
  5
5C4
100
AcDbEntity
  8
BLACK
  6
CONTINUOUS
 62
  256
370
   -1
100
AcDbLine
 10
100.25
 20
-97.5493
 11
100.298
 21
-97.41670000000001
  0
LINE
  5
5C5
100
AcDbEntity
  8
BLACK
  6
CONTINUOUS
 62
  256
370
   -1
100
AcDbLine
 10
100.298
 20
-97.41670000000001
 11
100.389
 21
-97.3087
  0
LINE
  5
5C6
100
AcDbEntity
  8
BLACK
  6
CONTINUOUS
 62
  256
370
   -1
100
AcDbLine
 10
100.389
 20
-97.3087
 11
100.511
 21
-97.2381
  0
LINE
  5
5C7
100
AcDbEntity
  8
BLACK
  6
CONTINUOUS
 62
  256
370
   -1
100
AcDbLine
 10
100.511
 20
-97.2381
 11
100.65
 21
-97.2136
  0
LINE
  5
5C8
100
AcDbEntity
  8
BLACK
  6
CONTINUOUS
 62
  256
370
   -1
100
AcDbLine
 10
100.65
 20
-97.2136
 11
100.789
 21
-97.2381
  0
LINE
  5
5C9
100
AcDbEntity
  8
BLACK
  6
CONTINUOUS
 62
  256
370
   -1
100
AcDbLine
 10
104.739
 20
-106.118
 11
104.861
 21
-106.189
  0
LINE
  5
5CA
100
AcDbEntity
  8
BLACK
  6
CONTINUOUS
 62
  256
370
   -1
100
AcDbLine
 10
104.861
 20
-106.189
 11
104.952
 21
-106.297
  0
LINE
  5
5CB
100
AcDbEntity
  8
BLACK
  6
CONTINUOUS
 62
  256
370
   -1
100
AcDbLine
 10
104.952
 20
-106.297
 11
105
 21
-106.429
  0
LINE
  5
5CC
100
AcDbEntity
  8
BLACK
  6
CONTINUOUS
 62
  256
370
   -1
100
AcDbLine
 10
105
 20
-106.429
 11
105
 21
-106.571
  0
LINE
  5
5CD
100
AcDbEntity
  8
BLACK
  6
CONTINUOUS
 62
  256
370
   -1
100
AcDbLine
 10
105
 20
-106.571
 11
104.952
 21
-106.703
  0
LINE
  5
5CE
100
AcDbEntity
  8
BLACK
  6
CONTINUOUS
 62
  256
370
   -1
100
AcDbLine
 10
104.952
 20
-106.703
 11
104.861
 21
-106.811
  0
LINE
  5
5CF
100
AcDbEntity
  8
BLACK
  6
CONTINUOUS
 62
  256
370
   -1
100
AcDbLine
 10
104.861
 20
-106.811
 11
104.739
 21
-106.882
  0
LINE
  5
5D0
100
AcDbEntity
  8
BLACK
  6
CONTINUOUS
 62
  256
370
   -1
100
AcDbLine
 10
104.739
 20
-106.882
 11
104.6
 21
-106.906
  0
LINE
  5
5D1
100
AcDbEntity
  8
BLACK
  6
CONTINUOUS
 62
  256
370
   -1
100
AcDbLine
 10
104.6
 20
-106.906
 11
104.461
 21
-106.882
  0
LINE
  5
5D2
100
AcDbEntity
  8
BLACK
  6
CONTINUOUS
 62
  256
370
   -1
100
AcDbLine
 10
104.461
 20
-106.882
 11
104.339
 21
-106.811
  0
LINE
  5
5D3
100
AcDbEntity
  8
BLACK
  6
CONTINUOUS
 62
  256
370
   -1
100
AcDbLine
 10
104.339
 20
-106.811
 11
104.248
 21
-106.703
  0
LINE
  5
5D4
100
AcDbEntity
  8
BLACK
  6
CONTINUOUS
 62
  256
370
   -1
100
AcDbLine
 10
104.248
 20
-106.703
 11
104.2
 21
-106.571
  0
LINE
  5
5D5
100
AcDbEntity
  8
BLACK
  6
CONTINUOUS
 62
  256
370
   -1
100
AcDbLine
 10
104.2
 20
-106.571
 11
104.2
 21
-106.429
  0
LINE
  5
5D6
100
AcDbEntity
  8
BLACK
  6
CONTINUOUS
 62
  256
370
   -1
100
AcDbLine
 10
104.2
 20
-106.429
 11
104.248
 21
-106.297
  0
LINE
  5
5D7
100
AcDbEntity
  8
BLACK
  6
CONTINUOUS
 62
  256
370
   -1
100
AcDbLine
 10
104.248
 20
-106.297
 11
104.339
 21
-106.189
  0
LINE
  5
5D8
100
AcDbEntity
  8
BLACK
  6
CONTINUOUS
 62
  256
370
   -1
100
AcDbLine
 10
104.339
 20
-106.189
 11
104.461
 21
-106.118
  0
LINE
  5
5D9
100
AcDbEntity
  8
BLACK
  6
CONTINUOUS
 62
  256
370
   -1
100
AcDbLine
 10
104.461
 20
-106.118
 11
104.6
 21
-106.094
  0
LINE
  5
5DA
100
AcDbEntity
  8
BLACK
  6
CONTINUOUS
 62
  256
370
   -1
100
AcDbLine
 10
104.6
 20
-106.094
 11
104.739
 21
-106.118
  0
LINE
  5
5DB
100
AcDbEntity
  8
BLACK
  6
CONTINUOUS
 62
  256
370
   -1
100
AcDbLine
 10
106.139
 20
-94.9183
 11
106.261
 21
-94.9889
  0
LINE
  5
5DC
100
AcDbEntity
  8
BLACK
  6
CONTINUOUS
 62
  256
370
   -1
100
AcDbLine
 10
106.261
 20
-94.9889
 11
106.352
 21
-95.09690000000001
  0
LINE
  5
5DD
100
AcDbEntity
  8
BLACK
  6
CONTINUOUS
 62
  256
370
   -1
100
AcDbLine
 10
106.352
 20
-95.09690000000001
 11
106.4
 21
-95.2295
  0
LINE
  5
5DE
100
AcDbEntity
  8
BLACK
  6
CONTINUOUS
 62
  256
370
   -1
100
AcDbLine
 10
106.4
 20
-95.2295
 11
106.4
 21
-95.37050000000001
  0
LINE
  5
5DF
100
AcDbEntity
  8
BLACK
  6
CONTINUOUS
 62
  256
370
   -1
100
AcDbLine
 10
106.4
 20
-95.37050000000001
 11
106.352
 21
-95.5031
  0
LINE
  5
5E0
100
AcDbEntity
  8
BLACK
  6
CONTINUOUS
 62
  256
370
   -1
100
AcDbLine
 10
106.352
 20
-95.5031
 11
106.261
 21
-95.61109999999999
  0
LINE
  5
5E1
100
AcDbEntity
  8
BLACK
  6
CONTINUOUS
 62
  256
370
   -1
100
AcDbLine
 10
106.261
 20
-95.61109999999999
 11
106.15
 21
-95.67529999999999
  0
LINE
  5
5E2
100
AcDbEntity
  8
BLACK
  6
CONTINUOUS
 62
  256
370
   -1
100
AcDbLine
 10
106.15
 20
-95.67529999999999
 11
106.15
 21
-103.725
  0
LINE
  5
5E3
100
AcDbEntity
  8
BLACK
  6
CONTINUOUS
 62
  256
370
   -1
100
AcDbLine
 10
106.15
 20
-103.725
 11
106.261
 21
-103.789
  0
LINE
  5
5E4
100
AcDbEntity
  8
BLACK
  6
CONTINUOUS
 62
  256
370
   -1
100
AcDbLine
 10
106.261
 20
-103.789
 11
106.352
 21
-103.897
  0
LINE
  5
5E5
100
AcDbEntity
  8
BLACK
  6
CONTINUOUS
 62
  256
370
   -1
100
AcDbLine
 10
106.352
 20
-103.897
 11
106.4
 21
-104.029
  0
LINE
  5
5E6
100
AcDbEntity
  8
BLACK
  6
CONTINUOUS
 62
  256
370
   -1
100
AcDbLine
 10
106.4
 20
-104.029
 11
106.4
 21
-104.171
  0
LINE
  5
5E7
100
AcDbEntity
  8
BLACK
  6
CONTINUOUS
 62
  256
370
   -1
100
AcDbLine
 10
106.4
 20
-104.171
 11
106.352
 21
-104.303
  0
LINE
  5
5E8
100
AcDbEntity
  8
BLACK
  6
CONTINUOUS
 62
  256
370
   -1
100
AcDbLine
 10
106.352
 20
-104.303
 11
106.261
 21
-104.411
  0
LINE
  5
5E9
100
AcDbEntity
  8
BLACK
  6
CONTINUOUS
 62
  256
370
   -1
100
AcDbLine
 10
106.261
 20
-104.411
 11
106.139
 21
-104.482
  0
LINE
  5
5EA
100
AcDbEntity
  8
BLACK
  6
CONTINUOUS
 62
  256
370
   -1
100
AcDbLine
 10
106.139
 20
-104.482
 11
106
 21
-104.506
  0
LINE
  5
5EB
100
AcDbEntity
  8
BLACK
  6
CONTINUOUS
 62
  256
370
   -1
100
AcDbLine
 10
106
 20
-104.506
 11
105.861
 21
-104.482
  0
LINE
  5
5EC
100
AcDbEntity
  8
BLACK
  6
CONTINUOUS
 62
  256
370
   -1
100
AcDbLine
 10
105.861
 20
-104.482
 11
105.739
 21
-104.411
  0
LINE
  5
5ED
100
AcDbEntity
  8
BLACK
  6
CONTINUOUS
 62
  256
370
   -1
100
AcDbLine
 10
105.739
 20
-104.411
 11
105.648
 21
-104.303
  0
LINE
  5
5EE
100
AcDbEntity
  8
BLACK
  6
CONTINUOUS
 62
  256
370
   -1
100
AcDbLine
 10
105.648
 20
-104.303
 11
105.6
 21
-104.171
  0
LINE
  5
5EF
100
AcDbEntity
  8
BLACK
  6
CONTINUOUS
 62
  256
370
   -1
100
AcDbLine
 10
105.6
 20
-104.171
 11
105.6
 21
-104.029
  0
LINE
  5
5F0
100
AcDbEntity
  8
BLACK
  6
CONTINUOUS
 62
  256
370
   -1
100
AcDbLine
 10
105.6
 20
-104.029
 11
105.648
 21
-103.897
  0
LINE
  5
5F1
100
AcDbEntity
  8
BLACK
  6
CONTINUOUS
 62
  256
370
   -1
100
AcDbLine
 10
105.648
 20
-103.897
 11
105.739
 21
-103.789
  0
LINE
  5
5F2
100
AcDbEntity
  8
BLACK
  6
CONTINUOUS
 62
  256
370
   -1
100
AcDbLine
 10
105.739
 20
-103.789
 11
105.85
 21
-103.725
  0
LINE
  5
5F3
100
AcDbEntity
  8
BLACK
  6
CONTINUOUS
 62
  256
370
   -1
100
AcDbLine
 10
105.85
 20
-103.725
 11
105.85
 21
-95.67529999999999
  0
LINE
  5
5F4
100
AcDbEntity
  8
BLACK
  6
CONTINUOUS
 62
  256
370
   -1
100
AcDbLine
 10
105.85
 20
-95.67529999999999
 11
105.739
 21
-95.61109999999999
  0
LINE
  5
5F5
100
AcDbEntity
  8
BLACK
  6
CONTINUOUS
 62
  256
370
   -1
100
AcDbLine
 10
105.739
 20
-95.61109999999999
 11
105.648
 21
-95.5031
  0
LINE
  5
5F6
100
AcDbEntity
  8
BLACK
  6
CONTINUOUS
 62
  256
370
   -1
100
AcDbLine
 10
105.648
 20
-95.5031
 11
105.6
 21
-95.37050000000001
  0
LINE
  5
5F7
100
AcDbEntity
  8
BLACK
  6
CONTINUOUS
 62
  256
370
   -1
100
AcDbLine
 10
105.6
 20
-95.37050000000001
 11
105.6
 21
-95.2295
  0
LINE
  5
5F8
100
AcDbEntity
  8
BLACK
  6
CONTINUOUS
 62
  256
370
   -1
100
AcDbLine
 10
105.6
 20
-95.2295
 11
105.648
 21
-95.09690000000001
  0
LINE
  5
5F9
100
AcDbEntity
  8
BLACK
  6
CONTINUOUS
 62
  256
370
   -1
100
AcDbLine
 10
105.648
 20
-95.09690000000001
 11
105.739
 21
-94.9889
  0
LINE
  5
5FA
100
AcDbEntity
  8
BLACK
  6
CONTINUOUS
 62
  256
370
   -1
100
AcDbLine
 10
105.739
 20
-94.9889
 11
105.861
 21
-94.9183
  0
LINE
  5
5FB
100
AcDbEntity
  8
BLACK
  6
CONTINUOUS
 62
  256
370
   -1
100
AcDbLine
 10
105.861
 20
-94.9183
 11
106
 21
-94.8938
  0
LINE
  5
5FC
100
AcDbEntity
  8
BLACK
  6
CONTINUOUS
 62
  256
370
   -1
100
AcDbLine
 10
106
 20
-94.8938
 11
106.139
 21
-94.9183
  0
LINE
  5
5FD
100
AcDbEntity
  8
BLACK
  6
CONTINUOUS
 62
  256
370
   -1
100
AcDbLine
 10
156.182
 20
-101.75
 11
156.518
 21
-101.944
  0
LINE
  5
5FE
100
AcDbEntity
  8
BLACK
  6
CONTINUOUS
 62
  256
370
   -1
100
AcDbLine
 10
156.518
 20
-101.944
 11
156.767
 21
-102.242
  0
LINE
  5
5FF
100
AcDbEntity
  8
BLACK
  6
CONTINUOUS
 62
  256
370
   -1
100
AcDbLine
 10
156.767
 20
-102.242
 11
156.9
 21
-102.606
  0
LINE
  5
600
100
AcDbEntity
  8
BLACK
  6
CONTINUOUS
 62
  256
370
   -1
100
AcDbLine
 10
156.9
 20
-102.606
 11
156.9
 21
-102.994
  0
LINE
  5
601
100
AcDbEntity
  8
BLACK
  6
CONTINUOUS
 62
  256
370
   -1
100
AcDbLine
 10
156.9
 20
-102.994
 11
156.767
 21
-103.358
  0
LINE
  5
602
100
AcDbEntity
  8
BLACK
  6
CONTINUOUS
 62
  256
370
   -1
100
AcDbLine
 10
156.767
 20
-103.358
 11
156.518
 21
-103.656
  0
LINE
  5
603
100
AcDbEntity
  8
BLACK
  6
CONTINUOUS
 62
  256
370
   -1
100
AcDbLine
 10
156.518
 20
-103.656
 11
156.182
 21
-103.85
  0
LINE
  5
604
100
AcDbEntity
  8
BLACK
  6
CONTINUOUS
 62
  256
370
   -1
100
AcDbLine
 10
156.182
 20
-103.85
 11
155.8
 21
-103.917
  0
LINE
  5
605
100
AcDbEntity
  8
BLACK
  6
CONTINUOUS
 62
  256
370
   -1
100
AcDbLine
 10
155.8
 20
-103.917
 11
155.418
 21
-103.85
  0
LINE
  5
606
100
AcDbEntity
  8
BLACK
  6
CONTINUOUS
 62
  256
370
   -1
100
AcDbLine
 10
155.418
 20
-103.85
 11
155.082
 21
-103.656
  0
LINE
  5
607
100
AcDbEntity
  8
BLACK
  6
CONTINUOUS
 62
  256
370
   -1
100
AcDbLine
 10
155.082
 20
-103.656
 11
154.833
 21
-103.358
  0
LINE
  5
608
100
AcDbEntity
  8
BLACK
  6
CONTINUOUS
 62
  256
370
   -1
100
AcDbLine
 10
154.833
 20
-103.358
 11
154.7
 21
-102.994
  0
LINE
  5
609
100
AcDbEntity
  8
BLACK
  6
CONTINUOUS
 62
  256
370
   -1
100
AcDbLine
 10
154.7
 20
-102.994
 11
154.7
 21
-102.606
  0
LINE
  5
60A
100
AcDbEntity
  8
BLACK
  6
CONTINUOUS
 62
  256
370
   -1
100
AcDbLine
 10
154.7
 20
-102.606
 11
154.833
 21
-102.242
  0
LINE
  5
60B
100
AcDbEntity
  8
BLACK
  6
CONTINUOUS
 62
  256
370
   -1
100
AcDbLine
 10
154.833
 20
-102.242
 11
155.082
 21
-101.944
  0
LINE
  5
60C
100
AcDbEntity
  8
BLACK
  6
CONTINUOUS
 62
  256
370
   -1
100
AcDbLine
 10
155.082
 20
-101.944
 11
155.418
 21
-101.75
  0
LINE
  5
60D
100
AcDbEntity
  8
BLACK
  6
CONTINUOUS
 62
  256
370
   -1
100
AcDbLine
 10
155.418
 20
-101.75
 11
155.8
 21
-101.683
  0
LINE
  5
60E
100
AcDbEntity
  8
BLACK
  6
CONTINUOUS
 62
  256
370
   -1
100
AcDbLine
 10
155.8
 20
-101.683
 11
156.182
 21
-101.75
  0
LINE
  5
60F
100
AcDbEntity
  8
BLACK
  6
CONTINUOUS
 62
  256
370
   -1
100
AcDbLine
 10
115.256
 20
-100.273
 11
115.744
 21
-100.555
  0
LINE
  5
610
100
AcDbEntity
  8
BLACK
  6
CONTINUOUS
 62
  256
370
   -1
100
AcDbLine
 10
115.744
 20
-100.555
 11
116.107
 21
-100.988
  0
LINE
  5
611
100
AcDbEntity
  8
BLACK
  6
CONTINUOUS
 62
  256
370
   -1
100
AcDbLine
 10
116.107
 20
-100.988
 11
116.3
 21
-101.518
  0
LINE
  5
612
100
AcDbEntity
  8
BLACK
  6
CONTINUOUS
 62
  256
370
   -1
100
AcDbLine
 10
116.3
 20
-101.518
 11
116.3
 21
-102.082
  0
LINE
  5
613
100
AcDbEntity
  8
BLACK
  6
CONTINUOUS
 62
  256
370
   -1
100
AcDbLine
 10
116.3
 20
-102.082
 11
116.107
 21
-102.612
  0
LINE
  5
614
100
AcDbEntity
  8
BLACK
  6
CONTINUOUS
 62
  256
370
   -1
100
AcDbLine
 10
116.107
 20
-102.612
 11
115.744
 21
-103.045
  0
LINE
  5
615
100
AcDbEntity
  8
BLACK
  6
CONTINUOUS
 62
  256
370
   -1
100
AcDbLine
 10
115.744
 20
-103.045
 11
115.256
 21
-103.327
  0
LINE
  5
616
100
AcDbEntity
  8
BLACK
  6
CONTINUOUS
 62
  256
370
   -1
100
AcDbLine
 10
115.256
 20
-103.327
 11
114.7
 21
-103.425
  0
LINE
  5
617
100
AcDbEntity
  8
BLACK
  6
CONTINUOUS
 62
  256
370
   -1
100
AcDbLine
 10
114.7
 20
-103.425
 11
114.144
 21
-103.327
  0
LINE
  5
618
100
AcDbEntity
  8
BLACK
  6
CONTINUOUS
 62
  256
370
   -1
100
AcDbLine
 10
114.144
 20
-103.327
 11
113.656
 21
-103.045
  0
LINE
  5
619
100
AcDbEntity
  8
BLACK
  6
CONTINUOUS
 62
  256
370
   -1
100
AcDbLine
 10
113.656
 20
-103.045
 11
113.293
 21
-102.612
  0
LINE
  5
61A
100
AcDbEntity
  8
BLACK
  6
CONTINUOUS
 62
  256
370
   -1
100
AcDbLine
 10
113.293
 20
-102.612
 11
113.1
 21
-102.082
  0
LINE
  5
61B
100
AcDbEntity
  8
BLACK
  6
CONTINUOUS
 62
  256
370
   -1
100
AcDbLine
 10
113.1
 20
-102.082
 11
113.1
 21
-101.518
  0
LINE
  5
61C
100
AcDbEntity
  8
BLACK
  6
CONTINUOUS
 62
  256
370
   -1
100
AcDbLine
 10
113.1
 20
-101.518
 11
113.293
 21
-100.988
  0
LINE
  5
61D
100
AcDbEntity
  8
BLACK
  6
CONTINUOUS
 62
  256
370
   -1
100
AcDbLine
 10
113.293
 20
-100.988
 11
113.656
 21
-100.555
  0
LINE
  5
61E
100
AcDbEntity
  8
BLACK
  6
CONTINUOUS
 62
  256
370
   -1
100
AcDbLine
 10
113.656
 20
-100.555
 11
114.144
 21
-100.273
  0
LINE
  5
61F
100
AcDbEntity
  8
BLACK
  6
CONTINUOUS
 62
  256
370
   -1
100
AcDbLine
 10
114.144
 20
-100.273
 11
114.7
 21
-100.175
  0
LINE
  5
620
100
AcDbEntity
  8
BLACK
  6
CONTINUOUS
 62
  256
370
   -1
100
AcDbLine
 10
114.7
 20
-100.175
 11
115.256
 21
-100.273
  0
LINE
  5
621
100
AcDbEntity
  8
BLACK
  6
CONTINUOUS
 62
  256
370
   -1
100
AcDbLine
 10
144.156
 20
-100.273
 11
144.644
 21
-100.555
  0
LINE
  5
622
100
AcDbEntity
  8
BLACK
  6
CONTINUOUS
 62
  256
370
   -1
100
AcDbLine
 10
144.644
 20
-100.555
 11
145.007
 21
-100.988
  0
LINE
  5
623
100
AcDbEntity
  8
BLACK
  6
CONTINUOUS
 62
  256
370
   -1
100
AcDbLine
 10
145.007
 20
-100.988
 11
145.2
 21
-101.518
  0
LINE
  5
624
100
AcDbEntity
  8
BLACK
  6
CONTINUOUS
 62
  256
370
   -1
100
AcDbLine
 10
145.2
 20
-101.518
 11
145.2
 21
-102.082
  0
LINE
  5
625
100
AcDbEntity
  8
BLACK
  6
CONTINUOUS
 62
  256
370
   -1
100
AcDbLine
 10
145.2
 20
-102.082
 11
145.007
 21
-102.612
  0
LINE
  5
626
100
AcDbEntity
  8
BLACK
  6
CONTINUOUS
 62
  256
370
   -1
100
AcDbLine
 10
145.007
 20
-102.612
 11
144.644
 21
-103.045
  0
LINE
  5
627
100
AcDbEntity
  8
BLACK
  6
CONTINUOUS
 62
  256
370
   -1
100
AcDbLine
 10
144.644
 20
-103.045
 11
144.156
 21
-103.327
  0
LINE
  5
628
100
AcDbEntity
  8
BLACK
  6
CONTINUOUS
 62
  256
370
   -1
100
AcDbLine
 10
144.156
 20
-103.327
 11
143.6
 21
-103.425
  0
LINE
  5
629
100
AcDbEntity
  8
BLACK
  6
CONTINUOUS
 62
  256
370
   -1
100
AcDbLine
 10
143.6
 20
-103.425
 11
143.044
 21
-103.327
  0
LINE
  5
62A
100
AcDbEntity
  8
BLACK
  6
CONTINUOUS
 62
  256
370
   -1
100
AcDbLine
 10
143.044
 20
-103.327
 11
142.556
 21
-103.045
  0
LINE
  5
62B
100
AcDbEntity
  8
BLACK
  6
CONTINUOUS
 62
  256
370
   -1
100
AcDbLine
 10
142.556
 20
-103.045
 11
142.193
 21
-102.612
  0
LINE
  5
62C
100
AcDbEntity
  8
BLACK
  6
CONTINUOUS
 62
  256
370
   -1
100
AcDbLine
 10
142.193
 20
-102.612
 11
142
 21
-102.082
  0
LINE
  5
62D
100
AcDbEntity
  8
BLACK
  6
CONTINUOUS
 62
  256
370
   -1
100
AcDbLine
 10
142
 20
-102.082
 11
142
 21
-101.518
  0
LINE
  5
62E
100
AcDbEntity
  8
BLACK
  6
CONTINUOUS
 62
  256
370
   -1
100
AcDbLine
 10
142
 20
-101.518
 11
142.193
 21
-100.988
  0
LINE
  5
62F
100
AcDbEntity
  8
BLACK
  6
CONTINUOUS
 62
  256
370
   -1
100
AcDbLine
 10
142.193
 20
-100.988
 11
142.556
 21
-100.555
  0
LINE
  5
630
100
AcDbEntity
  8
BLACK
  6
CONTINUOUS
 62
  256
370
   -1
100
AcDbLine
 10
142.556
 20
-100.555
 11
143.044
 21
-100.273
  0
LINE
  5
631
100
AcDbEntity
  8
BLACK
  6
CONTINUOUS
 62
  256
370
   -1
100
AcDbLine
 10
143.044
 20
-100.273
 11
143.6
 21
-100.175
  0
LINE
  5
632
100
AcDbEntity
  8
BLACK
  6
CONTINUOUS
 62
  256
370
   -1
100
AcDbLine
 10
143.6
 20
-100.175
 11
144.156
 21
-100.273
  0
LINE
  5
633
100
AcDbEntity
  8
BLACK
  6
CONTINUOUS
 62
  256
370
   -1
100
AcDbLine
 10
118.839
 20
-98.6183
 11
118.961
 21
-98.6889
  0
LINE
  5
634
100
AcDbEntity
  8
BLACK
  6
CONTINUOUS
 62
  256
370
   -1
100
AcDbLine
 10
118.961
 20
-98.6889
 11
119.052
 21
-98.79689999999999
  0
LINE
  5
635
100
AcDbEntity
  8
BLACK
  6
CONTINUOUS
 62
  256
370
   -1
100
AcDbLine
 10
119.052
 20
-98.79689999999999
 11
119.1
 21
-98.9295
  0
LINE
  5
636
100
AcDbEntity
  8
BLACK
  6
CONTINUOUS
 62
  256
370
   -1
100
AcDbLine
 10
119.1
 20
-98.9295
 11
119.1
 21
-99.0705
  0
LINE
  5
637
100
AcDbEntity
  8
BLACK
  6
CONTINUOUS
 62
  256
370
   -1
100
AcDbLine
 10
119.1
 20
-99.0705
 11
119.052
 21
-99.20310000000001
  0
LINE
  5
638
100
AcDbEntity
  8
BLACK
  6
CONTINUOUS
 62
  256
370
   -1
100
AcDbLine
 10
119.052
 20
-99.20310000000001
 11
118.961
 21
-99.3111
  0
LINE
  5
639
100
AcDbEntity
  8
BLACK
  6
CONTINUOUS
 62
  256
370
   -1
100
AcDbLine
 10
118.961
 20
-99.3111
 11
118.839
 21
-99.3817
  0
LINE
  5
63A
100
AcDbEntity
  8
BLACK
  6
CONTINUOUS
 62
  256
370
   -1
100
AcDbLine
 10
118.839
 20
-99.3817
 11
118.7
 21
-99.4062
  0
LINE
  5
63B
100
AcDbEntity
  8
BLACK
  6
CONTINUOUS
 62
  256
370
   -1
100
AcDbLine
 10
118.7
 20
-99.4062
 11
118.561
 21
-99.3817
  0
LINE
  5
63C
100
AcDbEntity
  8
BLACK
  6
CONTINUOUS
 62
  256
370
   -1
100
AcDbLine
 10
118.561
 20
-99.3817
 11
118.439
 21
-99.3111
  0
LINE
  5
63D
100
AcDbEntity
  8
BLACK
  6
CONTINUOUS
 62
  256
370
   -1
100
AcDbLine
 10
118.439
 20
-99.3111
 11
118.348
 21
-99.20310000000001
  0
LINE
  5
63E
100
AcDbEntity
  8
BLACK
  6
CONTINUOUS
 62
  256
370
   -1
100
AcDbLine
 10
118.348
 20
-99.20310000000001
 11
118.3
 21
-99.0705
  0
LINE
  5
63F
100
AcDbEntity
  8
BLACK
  6
CONTINUOUS
 62
  256
370
   -1
100
AcDbLine
 10
118.3
 20
-99.0705
 11
118.3
 21
-98.9295
  0
LINE
  5
640
100
AcDbEntity
  8
BLACK
  6
CONTINUOUS
 62
  256
370
   -1
100
AcDbLine
 10
118.3
 20
-98.9295
 11
118.348
 21
-98.79689999999999
  0
LINE
  5
641
100
AcDbEntity
  8
BLACK
  6
CONTINUOUS
 62
  256
370
   -1
100
AcDbLine
 10
118.348
 20
-98.79689999999999
 11
118.439
 21
-98.6889
  0
LINE
  5
642
100
AcDbEntity
  8
BLACK
  6
CONTINUOUS
 62
  256
370
   -1
100
AcDbLine
 10
118.439
 20
-98.6889
 11
118.561
 21
-98.6183
  0
LINE
  5
643
100
AcDbEntity
  8
BLACK
  6
CONTINUOUS
 62
  256
370
   -1
100
AcDbLine
 10
118.561
 20
-98.6183
 11
118.7
 21
-98.5938
  0
LINE
  5
644
100
AcDbEntity
  8
BLACK
  6
CONTINUOUS
 62
  256
370
   -1
100
AcDbLine
 10
118.7
 20
-98.5938
 11
118.839
 21
-98.6183
  0
LINE
  5
645
100
AcDbEntity
  8
BLACK
  6
CONTINUOUS
 62
  256
370
   -1
100
AcDbLine
 10
147.495
 20
-94.99160000000001
 11
148.105
 21
-95.3443
  0
LINE
  5
646
100
AcDbEntity
  8
BLACK
  6
CONTINUOUS
 62
  256
370
   -1
100
AcDbLine
 10
148.105
 20
-95.3443
 11
148.559
 21
-95.88460000000001
  0
LINE
  5
647
100
AcDbEntity
  8
BLACK
  6
CONTINUOUS
 62
  256
370
   -1
100
AcDbLine
 10
148.559
 20
-95.88460000000001
 11
148.8
 21
-96.54730000000001
  0
LINE
  5
648
100
AcDbEntity
  8
BLACK
  6
CONTINUOUS
 62
  256
370
   -1
100
AcDbLine
 10
148.8
 20
-96.54730000000001
 11
148.8
 21
-97.2527
  0
LINE
  5
649
100
AcDbEntity
  8
BLACK
  6
CONTINUOUS
 62
  256
370
   -1
100
AcDbLine
 10
148.8
 20
-97.2527
 11
148.559
 21
-97.91540000000001
  0
LINE
  5
64A
100
AcDbEntity
  8
BLACK
  6
CONTINUOUS
 62
  256
370
   -1
100
AcDbLine
 10
148.559
 20
-97.91540000000001
 11
148.105
 21
-98.45569999999999
  0
LINE
  5
64B
100
AcDbEntity
  8
BLACK
  6
CONTINUOUS
 62
  256
370
   -1
100
AcDbLine
 10
148.105
 20
-98.45569999999999
 11
147.495
 21
-98.80840000000001
  0
LINE
  5
64C
100
AcDbEntity
  8
BLACK
  6
CONTINUOUS
 62
  256
370
   -1
100
AcDbLine
 10
147.495
 20
-98.80840000000001
 11
146.8
 21
-98.93089999999999
  0
LINE
  5
64D
100
AcDbEntity
  8
BLACK
  6
CONTINUOUS
 62
  256
370
   -1
100
AcDbLine
 10
146.8
 20
-98.93089999999999
 11
146.105
 21
-98.80840000000001
  0
LINE
  5
64E
100
AcDbEntity
  8
BLACK
  6
CONTINUOUS
 62
  256
370
   -1
100
AcDbLine
 10
146.105
 20
-98.80840000000001
 11
145.495
 21
-98.45569999999999
  0
LINE
  5
64F
100
AcDbEntity
  8
BLACK
  6
CONTINUOUS
 62
  256
370
   -1
100
AcDbLine
 10
145.495
 20
-98.45569999999999
 11
145.041
 21
-97.91540000000001
  0
LINE
  5
650
100
AcDbEntity
  8
BLACK
  6
CONTINUOUS
 62
  256
370
   -1
100
AcDbLine
 10
145.041
 20
-97.91540000000001
 11
144.8
 21
-97.2527
  0
LINE
  5
651
100
AcDbEntity
  8
BLACK
  6
CONTINUOUS
 62
  256
370
   -1
100
AcDbLine
 10
144.8
 20
-97.2527
 11
144.8
 21
-96.54730000000001
  0
LINE
  5
652
100
AcDbEntity
  8
BLACK
  6
CONTINUOUS
 62
  256
370
   -1
100
AcDbLine
 10
144.8
 20
-96.54730000000001
 11
145.041
 21
-95.88460000000001
  0
LINE
  5
653
100
AcDbEntity
  8
BLACK
  6
CONTINUOUS
 62
  256
370
   -1
100
AcDbLine
 10
145.041
 20
-95.88460000000001
 11
145.495
 21
-95.3443
  0
LINE
  5
654
100
AcDbEntity
  8
BLACK
  6
CONTINUOUS
 62
  256
370
   -1
100
AcDbLine
 10
145.495
 20
-95.3443
 11
146.105
 21
-94.99160000000001
  0
LINE
  5
655
100
AcDbEntity
  8
BLACK
  6
CONTINUOUS
 62
  256
370
   -1
100
AcDbLine
 10
146.105
 20
-94.99160000000001
 11
146.8
 21
-94.8691
  0
LINE
  5
656
100
AcDbEntity
  8
BLACK
  6
CONTINUOUS
 62
  256
370
   -1
100
AcDbLine
 10
146.8
 20
-94.8691
 11
147.495
 21
-94.99160000000001
  0
LINE
  5
657
100
AcDbEntity
  8
BLACK
  6
CONTINUOUS
 62
  256
370
   -1
100
AcDbLine
 10
112.295
 20
-94.8916
 11
112.905
 21
-95.2443
  0
LINE
  5
658
100
AcDbEntity
  8
BLACK
  6
CONTINUOUS
 62
  256
370
   -1
100
AcDbLine
 10
112.905
 20
-95.2443
 11
113.359
 21
-95.7846
  0
LINE
  5
659
100
AcDbEntity
  8
BLACK
  6
CONTINUOUS
 62
  256
370
   -1
100
AcDbLine
 10
113.359
 20
-95.7846
 11
113.6
 21
-96.4473
  0
LINE
  5
65A
100
AcDbEntity
  8
BLACK
  6
CONTINUOUS
 62
  256
370
   -1
100
AcDbLine
 10
113.6
 20
-96.4473
 11
113.6
 21
-97.1527
  0
LINE
  5
65B
100
AcDbEntity
  8
BLACK
  6
CONTINUOUS
 62
  256
370
   -1
100
AcDbLine
 10
113.6
 20
-97.1527
 11
113.359
 21
-97.8154
  0
LINE
  5
65C
100
AcDbEntity
  8
BLACK
  6
CONTINUOUS
 62
  256
370
   -1
100
AcDbLine
 10
113.359
 20
-97.8154
 11
112.905
 21
-98.3557
  0
LINE
  5
65D
100
AcDbEntity
  8
BLACK
  6
CONTINUOUS
 62
  256
370
   -1
100
AcDbLine
 10
112.905
 20
-98.3557
 11
112.295
 21
-98.7084
  0
LINE
  5
65E
100
AcDbEntity
  8
BLACK
  6
CONTINUOUS
 62
  256
370
   -1
100
AcDbLine
 10
112.295
 20
-98.7084
 11
111.6
 21
-98.8309
  0
LINE
  5
65F
100
AcDbEntity
  8
BLACK
  6
CONTINUOUS
 62
  256
370
   -1
100
AcDbLine
 10
111.6
 20
-98.8309
 11
110.905
 21
-98.7084
  0
LINE
  5
660
100
AcDbEntity
  8
BLACK
  6
CONTINUOUS
 62
  256
370
   -1
100
AcDbLine
 10
110.905
 20
-98.7084
 11
110.295
 21
-98.3557
  0
LINE
  5
661
100
AcDbEntity
  8
BLACK
  6
CONTINUOUS
 62
  256
370
   -1
100
AcDbLine
 10
110.295
 20
-98.3557
 11
109.841
 21
-97.8154
  0
LINE
  5
662
100
AcDbEntity
  8
BLACK
  6
CONTINUOUS
 62
  256
370
   -1
100
AcDbLine
 10
109.841
 20
-97.8154
 11
109.6
 21
-97.1527
  0
LINE
  5
663
100
AcDbEntity
  8
BLACK
  6
CONTINUOUS
 62
  256
370
   -1
100
AcDbLine
 10
109.6
 20
-97.1527
 11
109.6
 21
-96.4473
  0
LINE
  5
664
100
AcDbEntity
  8
BLACK
  6
CONTINUOUS
 62
  256
370
   -1
100
AcDbLine
 10
109.6
 20
-96.4473
 11
109.841
 21
-95.7846
  0
LINE
  5
665
100
AcDbEntity
  8
BLACK
  6
CONTINUOUS
 62
  256
370
   -1
100
AcDbLine
 10
109.841
 20
-95.7846
 11
110.295
 21
-95.2443
  0
LINE
  5
666
100
AcDbEntity
  8
BLACK
  6
CONTINUOUS
 62
  256
370
   -1
100
AcDbLine
 10
110.295
 20
-95.2443
 11
110.905
 21
-94.8916
  0
LINE
  5
667
100
AcDbEntity
  8
BLACK
  6
CONTINUOUS
 62
  256
370
   -1
100
AcDbLine
 10
110.905
 20
-94.8916
 11
111.6
 21
-94.76909999999999
  0
LINE
  5
668
100
AcDbEntity
  8
BLACK
  6
CONTINUOUS
 62
  256
370
   -1
100
AcDbLine
 10
111.6
 20
-94.76909999999999
 11
112.295
 21
-94.8916
  0
LINE
  5
669
100
AcDbEntity
  8
BLACK
  6
CONTINUOUS
 62
  256
370
   -1
100
AcDbLine
 10
136.439
 20
-96.9183
 11
136.561
 21
-96.9889
  0
LINE
  5
66A
100
AcDbEntity
  8
BLACK
  6
CONTINUOUS
 62
  256
370
   -1
100
AcDbLine
 10
136.561
 20
-96.9889
 11
136.652
 21
-97.09690000000001
  0
LINE
  5
66B
100
AcDbEntity
  8
BLACK
  6
CONTINUOUS
 62
  256
370
   -1
100
AcDbLine
 10
136.652
 20
-97.09690000000001
 11
136.7
 21
-97.2295
  0
LINE
  5
66C
100
AcDbEntity
  8
BLACK
  6
CONTINUOUS
 62
  256
370
   -1
100
AcDbLine
 10
136.7
 20
-97.2295
 11
136.7
 21
-97.37050000000001
  0
LINE
  5
66D
100
AcDbEntity
  8
BLACK
  6
CONTINUOUS
 62
  256
370
   -1
100
AcDbLine
 10
136.7
 20
-97.37050000000001
 11
136.652
 21
-97.5031
  0
LINE
  5
66E
100
AcDbEntity
  8
BLACK
  6
CONTINUOUS
 62
  256
370
   -1
100
AcDbLine
 10
136.652
 20
-97.5031
 11
136.561
 21
-97.61109999999999
  0
LINE
  5
66F
100
AcDbEntity
  8
BLACK
  6
CONTINUOUS
 62
  256
370
   -1
100
AcDbLine
 10
136.561
 20
-97.61109999999999
 11
136.439
 21
-97.68170000000001
  0
LINE
  5
670
100
AcDbEntity
  8
BLACK
  6
CONTINUOUS
 62
  256
370
   -1
100
AcDbLine
 10
136.439
 20
-97.68170000000001
 11
136.3
 21
-97.7062
  0
LINE
  5
671
100
AcDbEntity
  8
BLACK
  6
CONTINUOUS
 62
  256
370
   -1
100
AcDbLine
 10
136.3
 20
-97.7062
 11
136.161
 21
-97.68170000000001
  0
LINE
  5
672
100
AcDbEntity
  8
BLACK
  6
CONTINUOUS
 62
  256
370
   -1
100
AcDbLine
 10
136.161
 20
-97.68170000000001
 11
136.039
 21
-97.61109999999999
  0
LINE
  5
673
100
AcDbEntity
  8
BLACK
  6
CONTINUOUS
 62
  256
370
   -1
100
AcDbLine
 10
136.039
 20
-97.61109999999999
 11
135.948
 21
-97.5031
  0
LINE
  5
674
100
AcDbEntity
  8
BLACK
  6
CONTINUOUS
 62
  256
370
   -1
100
AcDbLine
 10
135.948
 20
-97.5031
 11
135.9
 21
-97.37050000000001
  0
LINE
  5
675
100
AcDbEntity
  8
BLACK
  6
CONTINUOUS
 62
  256
370
   -1
100
AcDbLine
 10
135.9
 20
-97.37050000000001
 11
135.9
 21
-97.2295
  0
LINE
  5
676
100
AcDbEntity
  8
BLACK
  6
CONTINUOUS
 62
  256
370
   -1
100
AcDbLine
 10
135.9
 20
-97.2295
 11
135.948
 21
-97.09690000000001
  0
LINE
  5
677
100
AcDbEntity
  8
BLACK
  6
CONTINUOUS
 62
  256
370
   -1
100
AcDbLine
 10
135.948
 20
-97.09690000000001
 11
136.039
 21
-96.9889
  0
LINE
  5
678
100
AcDbEntity
  8
BLACK
  6
CONTINUOUS
 62
  256
370
   -1
100
AcDbLine
 10
136.039
 20
-96.9889
 11
136.161
 21
-96.9183
  0
LINE
  5
679
100
AcDbEntity
  8
BLACK
  6
CONTINUOUS
 62
  256
370
   -1
100
AcDbLine
 10
136.161
 20
-96.9183
 11
136.3
 21
-96.8938
  0
LINE
  5
67A
100
AcDbEntity
  8
BLACK
  6
CONTINUOUS
 62
  256
370
   -1
100
AcDbLine
 10
136.3
 20
-96.8938
 11
136.439
 21
-96.9183
  0
LINE
  5
67B
100
AcDbEntity
  8
BLACK
  6
CONTINUOUS
 62
  256
370
   -1
100
AcDbLine
 10
127.739
 20
-95.0183
 11
127.861
 21
-95.0889
  0
LINE
  5
67C
100
AcDbEntity
  8
BLACK
  6
CONTINUOUS
 62
  256
370
   -1
100
AcDbLine
 10
127.861
 20
-95.0889
 11
127.952
 21
-95.1969
  0
LINE
  5
67D
100
AcDbEntity
  8
BLACK
  6
CONTINUOUS
 62
  256
370
   -1
100
AcDbLine
 10
127.952
 20
-95.1969
 11
128
 21
-95.3295
  0
LINE
  5
67E
100
AcDbEntity
  8
BLACK
  6
CONTINUOUS
 62
  256
370
   -1
100
AcDbLine
 10
128
 20
-95.3295
 11
128
 21
-95.4705
  0
LINE
  5
67F
100
AcDbEntity
  8
BLACK
  6
CONTINUOUS
 62
  256
370
   -1
100
AcDbLine
 10
128
 20
-95.4705
 11
127.952
 21
-95.6031
  0
LINE
  5
680
100
AcDbEntity
  8
BLACK
  6
CONTINUOUS
 62
  256
370
   -1
100
AcDbLine
 10
127.952
 20
-95.6031
 11
127.861
 21
-95.7111
  0
LINE
  5
681
100
AcDbEntity
  8
BLACK
  6
CONTINUOUS
 62
  256
370
   -1
100
AcDbLine
 10
127.861
 20
-95.7111
 11
127.739
 21
-95.7817
  0
LINE
  5
682
100
AcDbEntity
  8
BLACK
  6
CONTINUOUS
 62
  256
370
   -1
100
AcDbLine
 10
127.739
 20
-95.7817
 11
127.6
 21
-95.8062
  0
LINE
  5
683
100
AcDbEntity
  8
BLACK
  6
CONTINUOUS
 62
  256
370
   -1
100
AcDbLine
 10
127.6
 20
-95.8062
 11
127.461
 21
-95.7817
  0
LINE
  5
684
100
AcDbEntity
  8
BLACK
  6
CONTINUOUS
 62
  256
370
   -1
100
AcDbLine
 10
127.461
 20
-95.7817
 11
127.339
 21
-95.7111
  0
LINE
  5
685
100
AcDbEntity
  8
BLACK
  6
CONTINUOUS
 62
  256
370
   -1
100
AcDbLine
 10
127.339
 20
-95.7111
 11
127.248
 21
-95.6031
  0
LINE
  5
686
100
AcDbEntity
  8
BLACK
  6
CONTINUOUS
 62
  256
370
   -1
100
AcDbLine
 10
127.248
 20
-95.6031
 11
127.2
 21
-95.4705
  0
LINE
  5
687
100
AcDbEntity
  8
BLACK
  6
CONTINUOUS
 62
  256
370
   -1
100
AcDbLine
 10
127.2
 20
-95.4705
 11
127.2
 21
-95.3295
  0
LINE
  5
688
100
AcDbEntity
  8
BLACK
  6
CONTINUOUS
 62
  256
370
   -1
100
AcDbLine
 10
127.2
 20
-95.3295
 11
127.248
 21
-95.1969
  0
LINE
  5
689
100
AcDbEntity
  8
BLACK
  6
CONTINUOUS
 62
  256
370
   -1
100
AcDbLine
 10
127.248
 20
-95.1969
 11
127.339
 21
-95.0889
  0
LINE
  5
68A
100
AcDbEntity
  8
BLACK
  6
CONTINUOUS
 62
  256
370
   -1
100
AcDbLine
 10
127.339
 20
-95.0889
 11
127.461
 21
-95.0183
  0
LINE
  5
68B
100
AcDbEntity
  8
BLACK
  6
CONTINUOUS
 62
  256
370
   -1
100
AcDbLine
 10
127.461
 20
-95.0183
 11
127.6
 21
-94.99379999999999
  0
LINE
  5
68C
100
AcDbEntity
  8
BLACK
  6
CONTINUOUS
 62
  256
370
   -1
100
AcDbLine
 10
127.6
 20
-94.99379999999999
 11
127.739
 21
-95.0183
  0
LINE
  5
68D
100
AcDbEntity
  8
BLACK
  6
CONTINUOUS
 62
  256
370
   -1
100
AcDbLine
 10
154.639
 20
-94.9183
 11
154.761
 21
-94.9889
  0
LINE
  5
68E
100
AcDbEntity
  8
BLACK
  6
CONTINUOUS
 62
  256
370
   -1
100
AcDbLine
 10
154.761
 20
-94.9889
 11
154.852
 21
-95.09690000000001
  0
LINE
  5
68F
100
AcDbEntity
  8
BLACK
  6
CONTINUOUS
 62
  256
370
   -1
100
AcDbLine
 10
154.852
 20
-95.09690000000001
 11
154.9
 21
-95.2295
  0
LINE
  5
690
100
AcDbEntity
  8
BLACK
  6
CONTINUOUS
 62
  256
370
   -1
100
AcDbLine
 10
154.9
 20
-95.2295
 11
154.9
 21
-95.37050000000001
  0
LINE
  5
691
100
AcDbEntity
  8
BLACK
  6
CONTINUOUS
 62
  256
370
   -1
100
AcDbLine
 10
154.9
 20
-95.37050000000001
 11
154.852
 21
-95.5031
  0
LINE
  5
692
100
AcDbEntity
  8
BLACK
  6
CONTINUOUS
 62
  256
370
   -1
100
AcDbLine
 10
154.852
 20
-95.5031
 11
154.761
 21
-95.61109999999999
  0
LINE
  5
693
100
AcDbEntity
  8
BLACK
  6
CONTINUOUS
 62
  256
370
   -1
100
AcDbLine
 10
154.761
 20
-95.61109999999999
 11
154.639
 21
-95.68170000000001
  0
LINE
  5
694
100
AcDbEntity
  8
BLACK
  6
CONTINUOUS
 62
  256
370
   -1
100
AcDbLine
 10
154.639
 20
-95.68170000000001
 11
154.5
 21
-95.7062
  0
LINE
  5
695
100
AcDbEntity
  8
BLACK
  6
CONTINUOUS
 62
  256
370
   -1
100
AcDbLine
 10
154.5
 20
-95.7062
 11
154.361
 21
-95.68170000000001
  0
LINE
  5
696
100
AcDbEntity
  8
BLACK
  6
CONTINUOUS
 62
  256
370
   -1
100
AcDbLine
 10
154.361
 20
-95.68170000000001
 11
154.239
 21
-95.61109999999999
  0
LINE
  5
697
100
AcDbEntity
  8
BLACK
  6
CONTINUOUS
 62
  256
370
   -1
100
AcDbLine
 10
154.239
 20
-95.61109999999999
 11
154.148
 21
-95.5031
  0
LINE
  5
698
100
AcDbEntity
  8
BLACK
  6
CONTINUOUS
 62
  256
370
   -1
100
AcDbLine
 10
154.148
 20
-95.5031
 11
154.1
 21
-95.37050000000001
  0
LINE
  5
699
100
AcDbEntity
  8
BLACK
  6
CONTINUOUS
 62
  256
370
   -1
100
AcDbLine
 10
154.1
 20
-95.37050000000001
 11
154.1
 21
-95.2295
  0
LINE
  5
69A
100
AcDbEntity
  8
BLACK
  6
CONTINUOUS
 62
  256
370
   -1
100
AcDbLine
 10
154.1
 20
-95.2295
 11
154.148
 21
-95.09690000000001
  0
LINE
  5
69B
100
AcDbEntity
  8
BLACK
  6
CONTINUOUS
 62
  256
370
   -1
100
AcDbLine
 10
154.148
 20
-95.09690000000001
 11
154.239
 21
-94.9889
  0
LINE
  5
69C
100
AcDbEntity
  8
BLACK
  6
CONTINUOUS
 62
  256
370
   -1
100
AcDbLine
 10
154.239
 20
-94.9889
 11
154.361
 21
-94.9183
  0
LINE
  5
69D
100
AcDbEntity
  8
BLACK
  6
CONTINUOUS
 62
  256
370
   -1
100
AcDbLine
 10
154.361
 20
-94.9183
 11
154.5
 21
-94.8938
  0
LINE
  5
69E
100
AcDbEntity
  8
BLACK
  6
CONTINUOUS
 62
  256
370
   -1
100
AcDbLine
 10
154.5
 20
-94.8938
 11
154.639
 21
-94.9183
  0
LINE
  5
69F
100
AcDbEntity
  8
BLACK
  6
CONTINUOUS
 62
  256
370
   -1
100
AcDbLine
 10
109.353
 20
-92.53189999999999
 11
109.475
 21
-92.60250000000001
  0
LINE
  5
6A0
100
AcDbEntity
  8
BLACK
  6
CONTINUOUS
 62
  256
370
   -1
100
AcDbLine
 10
109.475
 20
-92.60250000000001
 11
109.565
 21
-92.7105
  0
LINE
  5
6A1
100
AcDbEntity
  8
BLACK
  6
CONTINUOUS
 62
  256
370
   -1
100
AcDbLine
 10
109.565
 20
-92.7105
 11
109.614
 21
-92.84310000000001
  0
LINE
  5
6A2
100
AcDbEntity
  8
BLACK
  6
CONTINUOUS
 62
  256
370
   -1
100
AcDbLine
 10
109.614
 20
-92.84310000000001
 11
109.614
 21
-92.9841
  0
LINE
  5
6A3
100
AcDbEntity
  8
BLACK
  6
CONTINUOUS
 62
  256
370
   -1
100
AcDbLine
 10
109.614
 20
-92.9841
 11
109.582
 21
-93.0702
  0
LINE
  5
6A4
100
AcDbEntity
  8
BLACK
  6
CONTINUOUS
 62
  256
370
   -1
100
AcDbLine
 10
109.582
 20
-93.0702
 11
109.729
 21
-93.21680000000001
  0
LINE
  5
6A5
100
AcDbEntity
  8
BLACK
  6
CONTINUOUS
 62
  256
370
   -1
100
AcDbLine
 10
109.729
 20
-93.21680000000001
 11
109.729
 21
-93.21680000000001
  0
LINE
  5
6A6
100
AcDbEntity
  8
BLACK
  6
CONTINUOUS
 62
  256
370
   -1
100
AcDbLine
 10
109.729
 20
-93.21680000000001
 11
110.162
 21
-93.65000000000001
  0
LINE
  5
6A7
100
AcDbEntity
  8
BLACK
  6
CONTINUOUS
 62
  256
370
   -1
100
AcDbLine
 10
110.162
 20
-93.65000000000001
 11
138.393
 21
-93.65000000000001
  0
LINE
  5
6A8
100
AcDbEntity
  8
BLACK
  6
CONTINUOUS
 62
  256
370
   -1
100
AcDbLine
 10
138.393
 20
-93.65000000000001
 11
138.413
 21
-93.64830000000001
  0
LINE
  5
6A9
100
AcDbEntity
  8
BLACK
  6
CONTINUOUS
 62
  256
370
   -1
100
AcDbLine
 10
138.413
 20
-93.64830000000001
 11
138.432
 21
-93.6534
  0
LINE
  5
6AA
100
AcDbEntity
  8
BLACK
  6
CONTINUOUS
 62
  256
370
   -1
100
AcDbLine
 10
138.432
 20
-93.6534
 11
138.452
 21
-93.65689999999999
  0
LINE
  5
6AB
100
AcDbEntity
  8
BLACK
  6
CONTINUOUS
 62
  256
370
   -1
100
AcDbLine
 10
138.452
 20
-93.65689999999999
 11
138.458
 21
-93.6602
  0
LINE
  5
6AC
100
AcDbEntity
  8
BLACK
  6
CONTINUOUS
 62
  256
370
   -1
100
AcDbLine
 10
138.458
 20
-93.6602
 11
138.464
 21
-93.66200000000001
  0
LINE
  5
6AD
100
AcDbEntity
  8
BLACK
  6
CONTINUOUS
 62
  256
370
   -1
100
AcDbLine
 10
138.464
 20
-93.66200000000001
 11
138.481
 21
-93.6734
  0
LINE
  5
6AE
100
AcDbEntity
  8
BLACK
  6
CONTINUOUS
 62
  256
370
   -1
100
AcDbLine
 10
138.481
 20
-93.6734
 11
138.498
 21
-93.6833
  0
LINE
  5
6AF
100
AcDbEntity
  8
BLACK
  6
CONTINUOUS
 62
  256
370
   -1
100
AcDbLine
 10
138.498
 20
-93.6833
 11
138.511
 21
-93.6986
  0
LINE
  5
6B0
100
AcDbEntity
  8
BLACK
  6
CONTINUOUS
 62
  256
370
   -1
100
AcDbLine
 10
138.511
 20
-93.6986
 11
139.442
 21
-94.62949999999999
  0
LINE
  5
6B1
100
AcDbEntity
  8
BLACK
  6
CONTINUOUS
 62
  256
370
   -1
100
AcDbLine
 10
139.442
 20
-94.62949999999999
 11
139.461
 21
-94.6183
  0
LINE
  5
6B2
100
AcDbEntity
  8
BLACK
  6
CONTINUOUS
 62
  256
370
   -1
100
AcDbLine
 10
139.461
 20
-94.6183
 11
139.6
 21
-94.5938
  0
LINE
  5
6B3
100
AcDbEntity
  8
BLACK
  6
CONTINUOUS
 62
  256
370
   -1
100
AcDbLine
 10
139.6
 20
-94.5938
 11
139.739
 21
-94.6183
  0
LINE
  5
6B4
100
AcDbEntity
  8
BLACK
  6
CONTINUOUS
 62
  256
370
   -1
100
AcDbLine
 10
139.739
 20
-94.6183
 11
139.861
 21
-94.6889
  0
LINE
  5
6B5
100
AcDbEntity
  8
BLACK
  6
CONTINUOUS
 62
  256
370
   -1
100
AcDbLine
 10
139.861
 20
-94.6889
 11
139.952
 21
-94.79689999999999
  0
LINE
  5
6B6
100
AcDbEntity
  8
BLACK
  6
CONTINUOUS
 62
  256
370
   -1
100
AcDbLine
 10
139.952
 20
-94.79689999999999
 11
140
 21
-94.9295
  0
LINE
  5
6B7
100
AcDbEntity
  8
BLACK
  6
CONTINUOUS
 62
  256
370
   -1
100
AcDbLine
 10
140
 20
-94.9295
 11
140
 21
-95.0705
  0
LINE
  5
6B8
100
AcDbEntity
  8
BLACK
  6
CONTINUOUS
 62
  256
370
   -1
100
AcDbLine
 10
140
 20
-95.0705
 11
139.952
 21
-95.20310000000001
  0
LINE
  5
6B9
100
AcDbEntity
  8
BLACK
  6
CONTINUOUS
 62
  256
370
   -1
100
AcDbLine
 10
139.952
 20
-95.20310000000001
 11
139.861
 21
-95.3111
  0
LINE
  5
6BA
100
AcDbEntity
  8
BLACK
  6
CONTINUOUS
 62
  256
370
   -1
100
AcDbLine
 10
139.861
 20
-95.3111
 11
139.739
 21
-95.3817
  0
LINE
  5
6BB
100
AcDbEntity
  8
BLACK
  6
CONTINUOUS
 62
  256
370
   -1
100
AcDbLine
 10
139.739
 20
-95.3817
 11
139.6
 21
-95.4062
  0
LINE
  5
6BC
100
AcDbEntity
  8
BLACK
  6
CONTINUOUS
 62
  256
370
   -1
100
AcDbLine
 10
139.6
 20
-95.4062
 11
139.461
 21
-95.3817
  0
LINE
  5
6BD
100
AcDbEntity
  8
BLACK
  6
CONTINUOUS
 62
  256
370
   -1
100
AcDbLine
 10
139.461
 20
-95.3817
 11
139.339
 21
-95.3111
  0
LINE
  5
6BE
100
AcDbEntity
  8
BLACK
  6
CONTINUOUS
 62
  256
370
   -1
100
AcDbLine
 10
139.339
 20
-95.3111
 11
139.248
 21
-95.20310000000001
  0
LINE
  5
6BF
100
AcDbEntity
  8
BLACK
  6
CONTINUOUS
 62
  256
370
   -1
100
AcDbLine
 10
139.248
 20
-95.20310000000001
 11
139.2
 21
-95.0705
  0
LINE
  5
6C0
100
AcDbEntity
  8
BLACK
  6
CONTINUOUS
 62
  256
370
   -1
100
AcDbLine
 10
139.2
 20
-95.0705
 11
139.2
 21
-94.9295
  0
LINE
  5
6C1
100
AcDbEntity
  8
BLACK
  6
CONTINUOUS
 62
  256
370
   -1
100
AcDbLine
 10
139.2
 20
-94.9295
 11
139.231
 21
-94.8434
  0
LINE
  5
6C2
100
AcDbEntity
  8
BLACK
  6
CONTINUOUS
 62
  256
370
   -1
100
AcDbLine
 10
139.231
 20
-94.8434
 11
138.338
 21
-93.95
  0
LINE
  5
6C3
100
AcDbEntity
  8
BLACK
  6
CONTINUOUS
 62
  256
370
   -1
100
AcDbLine
 10
138.338
 20
-93.95
 11
110.107
 21
-93.95
  0
LINE
  5
6C4
100
AcDbEntity
  8
BLACK
  6
CONTINUOUS
 62
  256
370
   -1
100
AcDbLine
 10
110.107
 20
-93.95
 11
110.087
 21
-93.9517
  0
LINE
  5
6C5
100
AcDbEntity
  8
BLACK
  6
CONTINUOUS
 62
  256
370
   -1
100
AcDbLine
 10
110.087
 20
-93.9517
 11
110.068
 21
-93.9466
  0
LINE
  5
6C6
100
AcDbEntity
  8
BLACK
  6
CONTINUOUS
 62
  256
370
   -1
100
AcDbLine
 10
110.068
 20
-93.9466
 11
110.048
 21
-93.9431
  0
LINE
  5
6C7
100
AcDbEntity
  8
BLACK
  6
CONTINUOUS
 62
  256
370
   -1
100
AcDbLine
 10
110.048
 20
-93.9431
 11
110.042
 21
-93.93980000000001
  0
LINE
  5
6C8
100
AcDbEntity
  8
BLACK
  6
CONTINUOUS
 62
  256
370
   -1
100
AcDbLine
 10
110.042
 20
-93.93980000000001
 11
110.036
 21
-93.938
  0
LINE
  5
6C9
100
AcDbEntity
  8
BLACK
  6
CONTINUOUS
 62
  256
370
   -1
100
AcDbLine
 10
110.036
 20
-93.938
 11
110.019
 21
-93.92659999999999
  0
LINE
  5
6CA
100
AcDbEntity
  8
BLACK
  6
CONTINUOUS
 62
  256
370
   -1
100
AcDbLine
 10
110.019
 20
-93.92659999999999
 11
110.002
 21
-93.91670000000001
  0
LINE
  5
6CB
100
AcDbEntity
  8
BLACK
  6
CONTINUOUS
 62
  256
370
   -1
100
AcDbLine
 10
110.002
 20
-93.91670000000001
 11
109.989
 21
-93.9014
  0
LINE
  5
6CC
100
AcDbEntity
  8
BLACK
  6
CONTINUOUS
 62
  256
370
   -1
100
AcDbLine
 10
109.989
 20
-93.9014
 11
109.517
 21
-93.4289
  0
LINE
  5
6CD
100
AcDbEntity
  8
BLACK
  6
CONTINUOUS
 62
  256
370
   -1
100
AcDbLine
 10
109.517
 20
-93.4289
 11
109.517
 21
-93.4289
  0
LINE
  5
6CE
100
AcDbEntity
  8
BLACK
  6
CONTINUOUS
 62
  256
370
   -1
100
AcDbLine
 10
109.517
 20
-93.4289
 11
109.372
 21
-93.2841
  0
LINE
  5
6CF
100
AcDbEntity
  8
BLACK
  6
CONTINUOUS
 62
  256
370
   -1
100
AcDbLine
 10
109.372
 20
-93.2841
 11
109.353
 21
-93.2953
  0
LINE
  5
6D0
100
AcDbEntity
  8
BLACK
  6
CONTINUOUS
 62
  256
370
   -1
100
AcDbLine
 10
109.353
 20
-93.2953
 11
109.214
 21
-93.3198
  0
LINE
  5
6D1
100
AcDbEntity
  8
BLACK
  6
CONTINUOUS
 62
  256
370
   -1
100
AcDbLine
 10
109.214
 20
-93.3198
 11
109.075
 21
-93.2953
  0
LINE
  5
6D2
100
AcDbEntity
  8
BLACK
  6
CONTINUOUS
 62
  256
370
   -1
100
AcDbLine
 10
109.075
 20
-93.2953
 11
108.953
 21
-93.2247
  0
LINE
  5
6D3
100
AcDbEntity
  8
BLACK
  6
CONTINUOUS
 62
  256
370
   -1
100
AcDbLine
 10
108.953
 20
-93.2247
 11
108.862
 21
-93.11669999999999
  0
LINE
  5
6D4
100
AcDbEntity
  8
BLACK
  6
CONTINUOUS
 62
  256
370
   -1
100
AcDbLine
 10
108.862
 20
-93.11669999999999
 11
108.814
 21
-92.9841
  0
LINE
  5
6D5
100
AcDbEntity
  8
BLACK
  6
CONTINUOUS
 62
  256
370
   -1
100
AcDbLine
 10
108.814
 20
-92.9841
 11
108.814
 21
-92.84310000000001
  0
LINE
  5
6D6
100
AcDbEntity
  8
BLACK
  6
CONTINUOUS
 62
  256
370
   -1
100
AcDbLine
 10
108.814
 20
-92.84310000000001
 11
108.862
 21
-92.7105
  0
LINE
  5
6D7
100
AcDbEntity
  8
BLACK
  6
CONTINUOUS
 62
  256
370
   -1
100
AcDbLine
 10
108.862
 20
-92.7105
 11
108.953
 21
-92.60250000000001
  0
LINE
  5
6D8
100
AcDbEntity
  8
BLACK
  6
CONTINUOUS
 62
  256
370
   -1
100
AcDbLine
 10
108.953
 20
-92.60250000000001
 11
109.075
 21
-92.53189999999999
  0
LINE
  5
6D9
100
AcDbEntity
  8
BLACK
  6
CONTINUOUS
 62
  256
370
   -1
100
AcDbLine
 10
109.075
 20
-92.53189999999999
 11
109.214
 21
-92.5074
  0
LINE
  5
6DA
100
AcDbEntity
  8
BLACK
  6
CONTINUOUS
 62
  256
370
   -1
100
AcDbLine
 10
109.214
 20
-92.5074
 11
109.353
 21
-92.53189999999999
  0
LINE
  5
6DB
100
AcDbEntity
  8
BLACK
  6
CONTINUOUS
 62
  256
370
   -1
100
AcDbLine
 10
109.389
 20
-91.3683
 11
109.511
 21
-91.4389
  0
LINE
  5
6DC
100
AcDbEntity
  8
BLACK
  6
CONTINUOUS
 62
  256
370
   -1
100
AcDbLine
 10
109.511
 20
-91.4389
 11
109.602
 21
-91.54689999999999
  0
LINE
  5
6DD
100
AcDbEntity
  8
BLACK
  6
CONTINUOUS
 62
  256
370
   -1
100
AcDbLine
 10
109.602
 20
-91.54689999999999
 11
109.65
 21
-91.6795
  0
LINE
  5
6DE
100
AcDbEntity
  8
BLACK
  6
CONTINUOUS
 62
  256
370
   -1
100
AcDbLine
 10
109.65
 20
-91.6795
 11
109.65
 21
-91.8205
  0
LINE
  5
6DF
100
AcDbEntity
  8
BLACK
  6
CONTINUOUS
 62
  256
370
   -1
100
AcDbLine
 10
109.65
 20
-91.8205
 11
109.602
 21
-91.95310000000001
  0
LINE
  5
6E0
100
AcDbEntity
  8
BLACK
  6
CONTINUOUS
 62
  256
370
   -1
100
AcDbLine
 10
109.602
 20
-91.95310000000001
 11
109.511
 21
-92.0611
  0
LINE
  5
6E1
100
AcDbEntity
  8
BLACK
  6
CONTINUOUS
 62
  256
370
   -1
100
AcDbLine
 10
109.511
 20
-92.0611
 11
109.389
 21
-92.1317
  0
LINE
  5
6E2
100
AcDbEntity
  8
BLACK
  6
CONTINUOUS
 62
  256
370
   -1
100
AcDbLine
 10
109.389
 20
-92.1317
 11
109.25
 21
-92.1562
  0
LINE
  5
6E3
100
AcDbEntity
  8
BLACK
  6
CONTINUOUS
 62
  256
370
   -1
100
AcDbLine
 10
109.25
 20
-92.1562
 11
109.111
 21
-92.1317
  0
LINE
  5
6E4
100
AcDbEntity
  8
BLACK
  6
CONTINUOUS
 62
  256
370
   -1
100
AcDbLine
 10
109.111
 20
-92.1317
 11
108.989
 21
-92.0611
  0
LINE
  5
6E5
100
AcDbEntity
  8
BLACK
  6
CONTINUOUS
 62
  256
370
   -1
100
AcDbLine
 10
108.989
 20
-92.0611
 11
108.907
 21
-91.9633
  0
LINE
  5
6E6
100
AcDbEntity
  8
BLACK
  6
CONTINUOUS
 62
  256
370
   -1
100
AcDbLine
 10
108.907
 20
-91.9633
 11
106.519
 21
-94.3514
  0
LINE
  5
6E7
100
AcDbEntity
  8
BLACK
  6
CONTINUOUS
 62
  256
370
   -1
100
AcDbLine
 10
106.519
 20
-94.3514
 11
106.506
 21
-94.36669999999999
  0
LINE
  5
6E8
100
AcDbEntity
  8
BLACK
  6
CONTINUOUS
 62
  256
370
   -1
100
AcDbLine
 10
106.506
 20
-94.36669999999999
 11
106.489
 21
-94.3766
  0
LINE
  5
6E9
100
AcDbEntity
  8
BLACK
  6
CONTINUOUS
 62
  256
370
   -1
100
AcDbLine
 10
106.489
 20
-94.3766
 11
106.472
 21
-94.38800000000001
  0
LINE
  5
6EA
100
AcDbEntity
  8
BLACK
  6
CONTINUOUS
 62
  256
370
   -1
100
AcDbLine
 10
106.472
 20
-94.38800000000001
 11
106.466
 21
-94.38979999999999
  0
LINE
  5
6EB
100
AcDbEntity
  8
BLACK
  6
CONTINUOUS
 62
  256
370
   -1
100
AcDbLine
 10
106.466
 20
-94.38979999999999
 11
106.46
 21
-94.3931
  0
LINE
  5
6EC
100
AcDbEntity
  8
BLACK
  6
CONTINUOUS
 62
  256
370
   -1
100
AcDbLine
 10
106.46
 20
-94.3931
 11
106.44
 21
-94.39660000000001
  0
LINE
  5
6ED
100
AcDbEntity
  8
BLACK
  6
CONTINUOUS
 62
  256
370
   -1
100
AcDbLine
 10
106.44
 20
-94.39660000000001
 11
106.421
 21
-94.40170000000001
  0
LINE
  5
6EE
100
AcDbEntity
  8
BLACK
  6
CONTINUOUS
 62
  256
370
   -1
100
AcDbLine
 10
106.421
 20
-94.40170000000001
 11
106.401
 21
-94.40000000000001
  0
LINE
  5
6EF
100
AcDbEntity
  8
BLACK
  6
CONTINUOUS
 62
  256
370
   -1
100
AcDbLine
 10
106.401
 20
-94.40000000000001
 11
105.386
 21
-94.40000000000001
  0
LINE
  5
6F0
100
AcDbEntity
  8
BLACK
  6
CONTINUOUS
 62
  256
370
   -1
100
AcDbLine
 10
105.386
 20
-94.40000000000001
 11
105.366
 21
-94.40170000000001
  0
LINE
  5
6F1
100
AcDbEntity
  8
BLACK
  6
CONTINUOUS
 62
  256
370
   -1
100
AcDbLine
 10
105.366
 20
-94.40170000000001
 11
105.347
 21
-94.39660000000001
  0
LINE
  5
6F2
100
AcDbEntity
  8
BLACK
  6
CONTINUOUS
 62
  256
370
   -1
100
AcDbLine
 10
105.347
 20
-94.39660000000001
 11
105.327
 21
-94.3931
  0
LINE
  5
6F3
100
AcDbEntity
  8
BLACK
  6
CONTINUOUS
 62
  256
370
   -1
100
AcDbLine
 10
105.327
 20
-94.3931
 11
105.321
 21
-94.38979999999999
  0
LINE
  5
6F4
100
AcDbEntity
  8
BLACK
  6
CONTINUOUS
 62
  256
370
   -1
100
AcDbLine
 10
105.321
 20
-94.38979999999999
 11
105.315
 21
-94.38800000000001
  0
LINE
  5
6F5
100
AcDbEntity
  8
BLACK
  6
CONTINUOUS
 62
  256
370
   -1
100
AcDbLine
 10
105.315
 20
-94.38800000000001
 11
105.299
 21
-94.3766
  0
LINE
  5
6F6
100
AcDbEntity
  8
BLACK
  6
CONTINUOUS
 62
  256
370
   -1
100
AcDbLine
 10
105.299
 20
-94.3766
 11
105.281
 21
-94.36669999999999
  0
LINE
  5
6F7
100
AcDbEntity
  8
BLACK
  6
CONTINUOUS
 62
  256
370
   -1
100
AcDbLine
 10
105.281
 20
-94.36669999999999
 11
105.269
 21
-94.3514
  0
LINE
  5
6F8
100
AcDbEntity
  8
BLACK
  6
CONTINUOUS
 62
  256
370
   -1
100
AcDbLine
 10
105.269
 20
-94.3514
 11
104.655
 21
-93.738
  0
LINE
  5
6F9
100
AcDbEntity
  8
BLACK
  6
CONTINUOUS
 62
  256
370
   -1
100
AcDbLine
 10
104.655
 20
-93.738
 11
104.64
 21
-93.7252
  0
LINE
  5
6FA
100
AcDbEntity
  8
BLACK
  6
CONTINUOUS
 62
  256
370
   -1
100
AcDbLine
 10
104.64
 20
-93.7252
 11
104.63
 21
-93.7079
  0
LINE
  5
6FB
100
AcDbEntity
  8
BLACK
  6
CONTINUOUS
 62
  256
370
   -1
100
AcDbLine
 10
104.63
 20
-93.7079
 11
104.619
 21
-93.69159999999999
  0
LINE
  5
6FC
100
AcDbEntity
  8
BLACK
  6
CONTINUOUS
 62
  256
370
   -1
100
AcDbLine
 10
104.619
 20
-93.69159999999999
 11
104.617
 21
-93.68519999999999
  0
LINE
  5
6FD
100
AcDbEntity
  8
BLACK
  6
CONTINUOUS
 62
  256
370
   -1
100
AcDbLine
 10
104.617
 20
-93.68519999999999
 11
104.614
 21
-93.6794
  0
LINE
  5
6FE
100
AcDbEntity
  8
BLACK
  6
CONTINUOUS
 62
  256
370
   -1
100
AcDbLine
 10
104.614
 20
-93.6794
 11
104.61
 21
-93.6598
  0
LINE
  5
6FF
100
AcDbEntity
  8
BLACK
  6
CONTINUOUS
 62
  256
370
   -1
100
AcDbLine
 10
104.61
 20
-93.6598
 11
104.605
 21
-93.6405
  0
LINE
  5
700
100
AcDbEntity
  8
BLACK
  6
CONTINUOUS
 62
  256
370
   -1
100
AcDbLine
 10
104.605
 20
-93.6405
 11
104.607
 21
-93.6207
  0
LINE
  5
701
100
AcDbEntity
  8
BLACK
  6
CONTINUOUS
 62
  256
370
   -1
100
AcDbLine
 10
104.607
 20
-93.6207
 11
104.607
 21
-93.43689999999999
  0
LINE
  5
702
100
AcDbEntity
  8
BLACK
  6
CONTINUOUS
 62
  256
370
   -1
100
AcDbLine
 10
104.607
 20
-93.43689999999999
 11
104.496
 21
-93.37269999999999
  0
LINE
  5
703
100
AcDbEntity
  8
BLACK
  6
CONTINUOUS
 62
  256
370
   -1
100
AcDbLine
 10
104.496
 20
-93.37269999999999
 11
104.405
 21
-93.2647
  0
LINE
  5
704
100
AcDbEntity
  8
BLACK
  6
CONTINUOUS
 62
  256
370
   -1
100
AcDbLine
 10
104.405
 20
-93.2647
 11
104.357
 21
-93.13209999999999
  0
LINE
  5
705
100
AcDbEntity
  8
BLACK
  6
CONTINUOUS
 62
  256
370
   -1
100
AcDbLine
 10
104.357
 20
-93.13209999999999
 11
104.357
 21
-92.991
  0
LINE
  5
706
100
AcDbEntity
  8
BLACK
  6
CONTINUOUS
 62
  256
370
   -1
100
AcDbLine
 10
104.357
 20
-92.991
 11
104.405
 21
-92.85850000000001
  0
LINE
  5
707
100
AcDbEntity
  8
BLACK
  6
CONTINUOUS
 62
  256
370
   -1
100
AcDbLine
 10
104.405
 20
-92.85850000000001
 11
104.496
 21
-92.7504
  0
LINE
  5
708
100
AcDbEntity
  8
BLACK
  6
CONTINUOUS
 62
  256
370
   -1
100
AcDbLine
 10
104.496
 20
-92.7504
 11
104.618
 21
-92.6799
  0
LINE
  5
709
100
AcDbEntity
  8
BLACK
  6
CONTINUOUS
 62
  256
370
   -1
100
AcDbLine
 10
104.618
 20
-92.6799
 11
104.757
 21
-92.6554
  0
LINE
  5
70A
100
AcDbEntity
  8
BLACK
  6
CONTINUOUS
 62
  256
370
   -1
100
AcDbLine
 10
104.757
 20
-92.6554
 11
104.896
 21
-92.6799
  0
LINE
  5
70B
100
AcDbEntity
  8
BLACK
  6
CONTINUOUS
 62
  256
370
   -1
100
AcDbLine
 10
104.896
 20
-92.6799
 11
105.018
 21
-92.7504
  0
LINE
  5
70C
100
AcDbEntity
  8
BLACK
  6
CONTINUOUS
 62
  256
370
   -1
100
AcDbLine
 10
105.018
 20
-92.7504
 11
105.108
 21
-92.85850000000001
  0
LINE
  5
70D
100
AcDbEntity
  8
BLACK
  6
CONTINUOUS
 62
  256
370
   -1
100
AcDbLine
 10
105.108
 20
-92.85850000000001
 11
105.157
 21
-92.991
  0
LINE
  5
70E
100
AcDbEntity
  8
BLACK
  6
CONTINUOUS
 62
  256
370
   -1
100
AcDbLine
 10
105.157
 20
-92.991
 11
105.157
 21
-93.13209999999999
  0
LINE
  5
70F
100
AcDbEntity
  8
BLACK
  6
CONTINUOUS
 62
  256
370
   -1
100
AcDbLine
 10
105.157
 20
-93.13209999999999
 11
105.108
 21
-93.2647
  0
LINE
  5
710
100
AcDbEntity
  8
BLACK
  6
CONTINUOUS
 62
  256
370
   -1
100
AcDbLine
 10
105.108
 20
-93.2647
 11
105.018
 21
-93.37269999999999
  0
LINE
  5
711
100
AcDbEntity
  8
BLACK
  6
CONTINUOUS
 62
  256
370
   -1
100
AcDbLine
 10
105.018
 20
-93.37269999999999
 11
104.907
 21
-93.43689999999999
  0
LINE
  5
712
100
AcDbEntity
  8
BLACK
  6
CONTINUOUS
 62
  256
370
   -1
100
AcDbLine
 10
104.907
 20
-93.43689999999999
 11
104.907
 21
-93.5651
  0
LINE
  5
713
100
AcDbEntity
  8
BLACK
  6
CONTINUOUS
 62
  256
370
   -1
100
AcDbLine
 10
104.907
 20
-93.5651
 11
105.442
 21
-94.09999999999999
  0
LINE
  5
714
100
AcDbEntity
  8
BLACK
  6
CONTINUOUS
 62
  256
370
   -1
100
AcDbLine
 10
105.442
 20
-94.09999999999999
 11
106.346
 21
-94.09999999999999
  0
LINE
  5
715
100
AcDbEntity
  8
BLACK
  6
CONTINUOUS
 62
  256
370
   -1
100
AcDbLine
 10
106.346
 20
-94.09999999999999
 11
108.797
 21
-91.6486
  0
LINE
  5
716
100
AcDbEntity
  8
BLACK
  6
CONTINUOUS
 62
  256
370
   -1
100
AcDbLine
 10
108.797
 20
-91.6486
 11
108.81
 21
-91.63330000000001
  0
LINE
  5
717
100
AcDbEntity
  8
BLACK
  6
CONTINUOUS
 62
  256
370
   -1
100
AcDbLine
 10
108.81
 20
-91.63330000000001
 11
108.827
 21
-91.6234
  0
LINE
  5
718
100
AcDbEntity
  8
BLACK
  6
CONTINUOUS
 62
  256
370
   -1
100
AcDbLine
 10
108.827
 20
-91.6234
 11
108.844
 21
-91.61199999999999
  0
LINE
  5
719
100
AcDbEntity
  8
BLACK
  6
CONTINUOUS
 62
  256
370
   -1
100
AcDbLine
 10
108.844
 20
-91.61199999999999
 11
108.85
 21
-91.61020000000001
  0
LINE
  5
71A
100
AcDbEntity
  8
BLACK
  6
CONTINUOUS
 62
  256
370
   -1
100
AcDbLine
 10
108.85
 20
-91.61020000000001
 11
108.856
 21
-91.6069
  0
LINE
  5
71B
100
AcDbEntity
  8
BLACK
  6
CONTINUOUS
 62
  256
370
   -1
100
AcDbLine
 10
108.856
 20
-91.6069
 11
108.876
 21
-91.60339999999999
  0
LINE
  5
71C
100
AcDbEntity
  8
BLACK
  6
CONTINUOUS
 62
  256
370
   -1
100
AcDbLine
 10
108.876
 20
-91.60339999999999
 11
108.878
 21
-91.6028
  0
LINE
  5
71D
100
AcDbEntity
  8
BLACK
  6
CONTINUOUS
 62
  256
370
   -1
100
AcDbLine
 10
108.878
 20
-91.6028
 11
108.898
 21
-91.54689999999999
  0
LINE
  5
71E
100
AcDbEntity
  8
BLACK
  6
CONTINUOUS
 62
  256
370
   -1
100
AcDbLine
 10
108.898
 20
-91.54689999999999
 11
108.989
 21
-91.4389
  0
LINE
  5
71F
100
AcDbEntity
  8
BLACK
  6
CONTINUOUS
 62
  256
370
   -1
100
AcDbLine
 10
108.989
 20
-91.4389
 11
109.111
 21
-91.3683
  0
LINE
  5
720
100
AcDbEntity
  8
BLACK
  6
CONTINUOUS
 62
  256
370
   -1
100
AcDbLine
 10
109.111
 20
-91.3683
 11
109.25
 21
-91.3438
  0
LINE
  5
721
100
AcDbEntity
  8
BLACK
  6
CONTINUOUS
 62
  256
370
   -1
100
AcDbLine
 10
109.25
 20
-91.3438
 11
109.389
 21
-91.3683
  0
LINE
  5
722
100
AcDbEntity
  8
BLACK
  6
CONTINUOUS
 62
  256
370
   -1
100
AcDbLine
 10
108.139
 20
-90.8683
 11
108.261
 21
-90.9389
  0
LINE
  5
723
100
AcDbEntity
  8
BLACK
  6
CONTINUOUS
 62
  256
370
   -1
100
AcDbLine
 10
108.261
 20
-90.9389
 11
108.352
 21
-91.04689999999999
  0
LINE
  5
724
100
AcDbEntity
  8
BLACK
  6
CONTINUOUS
 62
  256
370
   -1
100
AcDbLine
 10
108.352
 20
-91.04689999999999
 11
108.4
 21
-91.1795
  0
LINE
  5
725
100
AcDbEntity
  8
BLACK
  6
CONTINUOUS
 62
  256
370
   -1
100
AcDbLine
 10
108.4
 20
-91.1795
 11
108.4
 21
-91.3205
  0
LINE
  5
726
100
AcDbEntity
  8
BLACK
  6
CONTINUOUS
 62
  256
370
   -1
100
AcDbLine
 10
108.4
 20
-91.3205
 11
108.352
 21
-91.45310000000001
  0
LINE
  5
727
100
AcDbEntity
  8
BLACK
  6
CONTINUOUS
 62
  256
370
   -1
100
AcDbLine
 10
108.352
 20
-91.45310000000001
 11
108.261
 21
-91.5611
  0
LINE
  5
728
100
AcDbEntity
  8
BLACK
  6
CONTINUOUS
 62
  256
370
   -1
100
AcDbLine
 10
108.261
 20
-91.5611
 11
108.139
 21
-91.6317
  0
LINE
  5
729
100
AcDbEntity
  8
BLACK
  6
CONTINUOUS
 62
  256
370
   -1
100
AcDbLine
 10
108.139
 20
-91.6317
 11
108
 21
-91.6562
  0
LINE
  5
72A
100
AcDbEntity
  8
BLACK
  6
CONTINUOUS
 62
  256
370
   -1
100
AcDbLine
 10
108
 20
-91.6562
 11
107.861
 21
-91.6317
  0
LINE
  5
72B
100
AcDbEntity
  8
BLACK
  6
CONTINUOUS
 62
  256
370
   -1
100
AcDbLine
 10
107.861
 20
-91.6317
 11
107.842
 21
-91.62050000000001
  0
LINE
  5
72C
100
AcDbEntity
  8
BLACK
  6
CONTINUOUS
 62
  256
370
   -1
100
AcDbLine
 10
107.842
 20
-91.62050000000001
 11
106.255
 21
-93.2075
  0
LINE
  5
72D
100
AcDbEntity
  8
BLACK
  6
CONTINUOUS
 62
  256
370
   -1
100
AcDbLine
 10
106.255
 20
-93.2075
 11
106.242
 21
-93.2227
  0
LINE
  5
72E
100
AcDbEntity
  8
BLACK
  6
CONTINUOUS
 62
  256
370
   -1
100
AcDbLine
 10
106.242
 20
-93.2227
 11
106.238
 21
-93.2248
  0
LINE
  5
72F
100
AcDbEntity
  8
BLACK
  6
CONTINUOUS
 62
  256
370
   -1
100
AcDbLine
 10
106.238
 20
-93.2248
 11
106.208
 21
-93.3091
  0
LINE
  5
730
100
AcDbEntity
  8
BLACK
  6
CONTINUOUS
 62
  256
370
   -1
100
AcDbLine
 10
106.208
 20
-93.3091
 11
106.117
 21
-93.41719999999999
  0
LINE
  5
731
100
AcDbEntity
  8
BLACK
  6
CONTINUOUS
 62
  256
370
   -1
100
AcDbLine
 10
106.117
 20
-93.41719999999999
 11
105.995
 21
-93.4877
  0
LINE
  5
732
100
AcDbEntity
  8
BLACK
  6
CONTINUOUS
 62
  256
370
   -1
100
AcDbLine
 10
105.995
 20
-93.4877
 11
105.856
 21
-93.51220000000001
  0
LINE
  5
733
100
AcDbEntity
  8
BLACK
  6
CONTINUOUS
 62
  256
370
   -1
100
AcDbLine
 10
105.856
 20
-93.51220000000001
 11
105.717
 21
-93.4877
  0
LINE
  5
734
100
AcDbEntity
  8
BLACK
  6
CONTINUOUS
 62
  256
370
   -1
100
AcDbLine
 10
105.717
 20
-93.4877
 11
105.595
 21
-93.41719999999999
  0
LINE
  5
735
100
AcDbEntity
  8
BLACK
  6
CONTINUOUS
 62
  256
370
   -1
100
AcDbLine
 10
105.595
 20
-93.41719999999999
 11
105.504
 21
-93.3091
  0
LINE
  5
736
100
AcDbEntity
  8
BLACK
  6
CONTINUOUS
 62
  256
370
   -1
100
AcDbLine
 10
105.504
 20
-93.3091
 11
105.456
 21
-93.17659999999999
  0
LINE
  5
737
100
AcDbEntity
  8
BLACK
  6
CONTINUOUS
 62
  256
370
   -1
100
AcDbLine
 10
105.456
 20
-93.17659999999999
 11
105.456
 21
-93.0355
  0
LINE
  5
738
100
AcDbEntity
  8
BLACK
  6
CONTINUOUS
 62
  256
370
   -1
100
AcDbLine
 10
105.456
 20
-93.0355
 11
105.504
 21
-92.9029
  0
LINE
  5
739
100
AcDbEntity
  8
BLACK
  6
CONTINUOUS
 62
  256
370
   -1
100
AcDbLine
 10
105.504
 20
-92.9029
 11
105.595
 21
-92.7949
  0
LINE
  5
73A
100
AcDbEntity
  8
BLACK
  6
CONTINUOUS
 62
  256
370
   -1
100
AcDbLine
 10
105.595
 20
-92.7949
 11
105.717
 21
-92.7244
  0
LINE
  5
73B
100
AcDbEntity
  8
BLACK
  6
CONTINUOUS
 62
  256
370
   -1
100
AcDbLine
 10
105.717
 20
-92.7244
 11
105.856
 21
-92.6999
  0
LINE
  5
73C
100
AcDbEntity
  8
BLACK
  6
CONTINUOUS
 62
  256
370
   -1
100
AcDbLine
 10
105.856
 20
-92.6999
 11
105.995
 21
-92.7244
  0
LINE
  5
73D
100
AcDbEntity
  8
BLACK
  6
CONTINUOUS
 62
  256
370
   -1
100
AcDbLine
 10
105.995
 20
-92.7244
 11
106.117
 21
-92.7949
  0
LINE
  5
73E
100
AcDbEntity
  8
BLACK
  6
CONTINUOUS
 62
  256
370
   -1
100
AcDbLine
 10
106.117
 20
-92.7949
 11
106.174
 21
-92.8635
  0
LINE
  5
73F
100
AcDbEntity
  8
BLACK
  6
CONTINUOUS
 62
  256
370
   -1
100
AcDbLine
 10
106.174
 20
-92.8635
 11
107.631
 21
-91.4066
  0
LINE
  5
740
100
AcDbEntity
  8
BLACK
  6
CONTINUOUS
 62
  256
370
   -1
100
AcDbLine
 10
107.631
 20
-91.4066
 11
107.6
 21
-91.3205
  0
LINE
  5
741
100
AcDbEntity
  8
BLACK
  6
CONTINUOUS
 62
  256
370
   -1
100
AcDbLine
 10
107.6
 20
-91.3205
 11
107.6
 21
-91.1795
  0
LINE
  5
742
100
AcDbEntity
  8
BLACK
  6
CONTINUOUS
 62
  256
370
   -1
100
AcDbLine
 10
107.6
 20
-91.1795
 11
107.648
 21
-91.04689999999999
  0
LINE
  5
743
100
AcDbEntity
  8
BLACK
  6
CONTINUOUS
 62
  256
370
   -1
100
AcDbLine
 10
107.648
 20
-91.04689999999999
 11
107.739
 21
-90.9389
  0
LINE
  5
744
100
AcDbEntity
  8
BLACK
  6
CONTINUOUS
 62
  256
370
   -1
100
AcDbLine
 10
107.739
 20
-90.9389
 11
107.861
 21
-90.8683
  0
LINE
  5
745
100
AcDbEntity
  8
BLACK
  6
CONTINUOUS
 62
  256
370
   -1
100
AcDbLine
 10
107.861
 20
-90.8683
 11
108
 21
-90.8438
  0
LINE
  5
746
100
AcDbEntity
  8
BLACK
  6
CONTINUOUS
 62
  256
370
   -1
100
AcDbLine
 10
108
 20
-90.8438
 11
108.139
 21
-90.8683
  0
LINE
  5
747
100
AcDbEntity
  8
BLACK
  6
CONTINUOUS
 62
  256
370
   -1
100
AcDbLine
 10
141.45
 20
-93.25
 11
139.75
 21
-93.25
  0
LINE
  5
748
100
AcDbEntity
  8
BLACK
  6
CONTINUOUS
 62
  256
370
   -1
100
AcDbLine
 10
139.75
 20
-93.25
 11
139.75
 21
-91.55
  0
LINE
  5
749
100
AcDbEntity
  8
BLACK
  6
CONTINUOUS
 62
  256
370
   -1
100
AcDbLine
 10
139.75
 20
-91.55
 11
141.45
 21
-91.55
  0
LINE
  5
74A
100
AcDbEntity
  8
BLACK
  6
CONTINUOUS
 62
  256
370
   -1
100
AcDbLine
 10
141.45
 20
-91.55
 11
141.45
 21
-93.25
  0
LINE
  5
74B
100
AcDbEntity
  8
BLACK
  6
CONTINUOUS
 62
  256
370
   -1
100
AcDbLine
 10
138.355
 20
-91.5889
 11
138.615
 21
-91.7388
  0
LINE
  5
74C
100
AcDbEntity
  8
BLACK
  6
CONTINUOUS
 62
  256
370
   -1
100
AcDbLine
 10
138.615
 20
-91.7388
 11
138.807
 21
-91.9684
  0
LINE
  5
74D
100
AcDbEntity
  8
BLACK
  6
CONTINUOUS
 62
  256
370
   -1
100
AcDbLine
 10
138.807
 20
-91.9684
 11
138.91
 21
-92.2501
  0
LINE
  5
74E
100
AcDbEntity
  8
BLACK
  6
CONTINUOUS
 62
  256
370
   -1
100
AcDbLine
 10
138.91
 20
-92.2501
 11
138.91
 21
-92.54989999999999
  0
LINE
  5
74F
100
AcDbEntity
  8
BLACK
  6
CONTINUOUS
 62
  256
370
   -1
100
AcDbLine
 10
138.91
 20
-92.54989999999999
 11
138.807
 21
-92.83159999999999
  0
LINE
  5
750
100
AcDbEntity
  8
BLACK
  6
CONTINUOUS
 62
  256
370
   -1
100
AcDbLine
 10
138.807
 20
-92.83159999999999
 11
138.615
 21
-93.0612
  0
LINE
  5
751
100
AcDbEntity
  8
BLACK
  6
CONTINUOUS
 62
  256
370
   -1
100
AcDbLine
 10
138.615
 20
-93.0612
 11
138.355
 21
-93.2111
  0
LINE
  5
752
100
AcDbEntity
  8
BLACK
  6
CONTINUOUS
 62
  256
370
   -1
100
AcDbLine
 10
138.355
 20
-93.2111
 11
138.134
 21
-93.25
  0
LINE
  5
753
100
AcDbEntity
  8
BLACK
  6
CONTINUOUS
 62
  256
370
   -1
100
AcDbLine
 10
138.134
 20
-93.25
 11
137.986
 21
-93.25
  0
LINE
  5
754
100
AcDbEntity
  8
BLACK
  6
CONTINUOUS
 62
  256
370
   -1
100
AcDbLine
 10
137.986
 20
-93.25
 11
137.765
 21
-93.2111
  0
LINE
  5
755
100
AcDbEntity
  8
BLACK
  6
CONTINUOUS
 62
  256
370
   -1
100
AcDbLine
 10
137.765
 20
-93.2111
 11
137.505
 21
-93.0612
  0
LINE
  5
756
100
AcDbEntity
  8
BLACK
  6
CONTINUOUS
 62
  256
370
   -1
100
AcDbLine
 10
137.505
 20
-93.0612
 11
137.313
 21
-92.83159999999999
  0
LINE
  5
757
100
AcDbEntity
  8
BLACK
  6
CONTINUOUS
 62
  256
370
   -1
100
AcDbLine
 10
137.313
 20
-92.83159999999999
 11
137.21
 21
-92.54989999999999
  0
LINE
  5
758
100
AcDbEntity
  8
BLACK
  6
CONTINUOUS
 62
  256
370
   -1
100
AcDbLine
 10
137.21
 20
-92.54989999999999
 11
137.21
 21
-92.2501
  0
LINE
  5
759
100
AcDbEntity
  8
BLACK
  6
CONTINUOUS
 62
  256
370
   -1
100
AcDbLine
 10
137.21
 20
-92.2501
 11
137.313
 21
-91.9684
  0
LINE
  5
75A
100
AcDbEntity
  8
BLACK
  6
CONTINUOUS
 62
  256
370
   -1
100
AcDbLine
 10
137.313
 20
-91.9684
 11
137.505
 21
-91.7388
  0
LINE
  5
75B
100
AcDbEntity
  8
BLACK
  6
CONTINUOUS
 62
  256
370
   -1
100
AcDbLine
 10
137.505
 20
-91.7388
 11
137.765
 21
-91.5889
  0
LINE
  5
75C
100
AcDbEntity
  8
BLACK
  6
CONTINUOUS
 62
  256
370
   -1
100
AcDbLine
 10
137.765
 20
-91.5889
 11
137.986
 21
-91.55
  0
LINE
  5
75D
100
AcDbEntity
  8
BLACK
  6
CONTINUOUS
 62
  256
370
   -1
100
AcDbLine
 10
137.986
 20
-91.55
 11
138.134
 21
-91.55
  0
LINE
  5
75E
100
AcDbEntity
  8
BLACK
  6
CONTINUOUS
 62
  256
370
   -1
100
AcDbLine
 10
138.134
 20
-91.55
 11
138.355
 21
-91.5889
  0
LINE
  5
75F
100
AcDbEntity
  8
BLACK
  6
CONTINUOUS
 62
  256
370
   -1
100
AcDbLine
 10
129.734
 20
-91.85590000000001
 11
129.941
 21
-91.97490000000001
  0
LINE
  5
760
100
AcDbEntity
  8
BLACK
  6
CONTINUOUS
 62
  256
370
   -1
100
AcDbLine
 10
129.941
 20
-91.97490000000001
 11
130.094
 21
-92.15730000000001
  0
LINE
  5
761
100
AcDbEntity
  8
BLACK
  6
CONTINUOUS
 62
  256
370
   -1
100
AcDbLine
 10
130.094
 20
-92.15730000000001
 11
130.175
 21
-92.381
  0
LINE
  5
762
100
AcDbEntity
  8
BLACK
  6
CONTINUOUS
 62
  256
370
   -1
100
AcDbLine
 10
130.175
 20
-92.381
 11
130.175
 21
-92.619
  0
LINE
  5
763
100
AcDbEntity
  8
BLACK
  6
CONTINUOUS
 62
  256
370
   -1
100
AcDbLine
 10
130.175
 20
-92.619
 11
130.094
 21
-92.84269999999999
  0
LINE
  5
764
100
AcDbEntity
  8
BLACK
  6
CONTINUOUS
 62
  256
370
   -1
100
AcDbLine
 10
130.094
 20
-92.84269999999999
 11
129.941
 21
-93.02509999999999
  0
LINE
  5
765
100
AcDbEntity
  8
BLACK
  6
CONTINUOUS
 62
  256
370
   -1
100
AcDbLine
 10
129.941
 20
-93.02509999999999
 11
129.734
 21
-93.14409999999999
  0
LINE
  5
766
100
AcDbEntity
  8
BLACK
  6
CONTINUOUS
 62
  256
370
   -1
100
AcDbLine
 10
129.734
 20
-93.14409999999999
 11
129.559
 21
-93.175
  0
LINE
  5
767
100
AcDbEntity
  8
BLACK
  6
CONTINUOUS
 62
  256
370
   -1
100
AcDbLine
 10
129.559
 20
-93.175
 11
129.441
 21
-93.175
  0
LINE
  5
768
100
AcDbEntity
  8
BLACK
  6
CONTINUOUS
 62
  256
370
   -1
100
AcDbLine
 10
129.441
 20
-93.175
 11
129.266
 21
-93.14409999999999
  0
LINE
  5
769
100
AcDbEntity
  8
BLACK
  6
CONTINUOUS
 62
  256
370
   -1
100
AcDbLine
 10
129.266
 20
-93.14409999999999
 11
129.059
 21
-93.02509999999999
  0
LINE
  5
76A
100
AcDbEntity
  8
BLACK
  6
CONTINUOUS
 62
  256
370
   -1
100
AcDbLine
 10
129.059
 20
-93.02509999999999
 11
128.906
 21
-92.84269999999999
  0
LINE
  5
76B
100
AcDbEntity
  8
BLACK
  6
CONTINUOUS
 62
  256
370
   -1
100
AcDbLine
 10
128.906
 20
-92.84269999999999
 11
128.825
 21
-92.619
  0
LINE
  5
76C
100
AcDbEntity
  8
BLACK
  6
CONTINUOUS
 62
  256
370
   -1
100
AcDbLine
 10
128.825
 20
-92.619
 11
128.825
 21
-92.381
  0
LINE
  5
76D
100
AcDbEntity
  8
BLACK
  6
CONTINUOUS
 62
  256
370
   -1
100
AcDbLine
 10
128.825
 20
-92.381
 11
128.906
 21
-92.15730000000001
  0
LINE
  5
76E
100
AcDbEntity
  8
BLACK
  6
CONTINUOUS
 62
  256
370
   -1
100
AcDbLine
 10
128.906
 20
-92.15730000000001
 11
129.059
 21
-91.97490000000001
  0
LINE
  5
76F
100
AcDbEntity
  8
BLACK
  6
CONTINUOUS
 62
  256
370
   -1
100
AcDbLine
 10
129.059
 20
-91.97490000000001
 11
129.266
 21
-91.85590000000001
  0
LINE
  5
770
100
AcDbEntity
  8
BLACK
  6
CONTINUOUS
 62
  256
370
   -1
100
AcDbLine
 10
129.266
 20
-91.85590000000001
 11
129.441
 21
-91.825
  0
LINE
  5
771
100
AcDbEntity
  8
BLACK
  6
CONTINUOUS
 62
  256
370
   -1
100
AcDbLine
 10
129.441
 20
-91.825
 11
129.559
 21
-91.825
  0
LINE
  5
772
100
AcDbEntity
  8
BLACK
  6
CONTINUOUS
 62
  256
370
   -1
100
AcDbLine
 10
129.559
 20
-91.825
 11
129.734
 21
-91.85590000000001
  0
LINE
  5
773
100
AcDbEntity
  8
BLACK
  6
CONTINUOUS
 62
  256
370
   -1
100
AcDbLine
 10
131.734
 20
-91.85590000000001
 11
131.941
 21
-91.97490000000001
  0
LINE
  5
774
100
AcDbEntity
  8
BLACK
  6
CONTINUOUS
 62
  256
370
   -1
100
AcDbLine
 10
131.941
 20
-91.97490000000001
 11
132.094
 21
-92.15730000000001
  0
LINE
  5
775
100
AcDbEntity
  8
BLACK
  6
CONTINUOUS
 62
  256
370
   -1
100
AcDbLine
 10
132.094
 20
-92.15730000000001
 11
132.175
 21
-92.381
  0
LINE
  5
776
100
AcDbEntity
  8
BLACK
  6
CONTINUOUS
 62
  256
370
   -1
100
AcDbLine
 10
132.175
 20
-92.381
 11
132.175
 21
-92.619
  0
LINE
  5
777
100
AcDbEntity
  8
BLACK
  6
CONTINUOUS
 62
  256
370
   -1
100
AcDbLine
 10
132.175
 20
-92.619
 11
132.094
 21
-92.84269999999999
  0
LINE
  5
778
100
AcDbEntity
  8
BLACK
  6
CONTINUOUS
 62
  256
370
   -1
100
AcDbLine
 10
132.094
 20
-92.84269999999999
 11
131.941
 21
-93.02509999999999
  0
LINE
  5
779
100
AcDbEntity
  8
BLACK
  6
CONTINUOUS
 62
  256
370
   -1
100
AcDbLine
 10
131.941
 20
-93.02509999999999
 11
131.734
 21
-93.14409999999999
  0
LINE
  5
77A
100
AcDbEntity
  8
BLACK
  6
CONTINUOUS
 62
  256
370
   -1
100
AcDbLine
 10
131.734
 20
-93.14409999999999
 11
131.559
 21
-93.175
  0
LINE
  5
77B
100
AcDbEntity
  8
BLACK
  6
CONTINUOUS
 62
  256
370
   -1
100
AcDbLine
 10
131.559
 20
-93.175
 11
131.441
 21
-93.175
  0
LINE
  5
77C
100
AcDbEntity
  8
BLACK
  6
CONTINUOUS
 62
  256
370
   -1
100
AcDbLine
 10
131.441
 20
-93.175
 11
131.266
 21
-93.14409999999999
  0
LINE
  5
77D
100
AcDbEntity
  8
BLACK
  6
CONTINUOUS
 62
  256
370
   -1
100
AcDbLine
 10
131.266
 20
-93.14409999999999
 11
131.059
 21
-93.02509999999999
  0
LINE
  5
77E
100
AcDbEntity
  8
BLACK
  6
CONTINUOUS
 62
  256
370
   -1
100
AcDbLine
 10
131.059
 20
-93.02509999999999
 11
130.906
 21
-92.84269999999999
  0
LINE
  5
77F
100
AcDbEntity
  8
BLACK
  6
CONTINUOUS
 62
  256
370
   -1
100
AcDbLine
 10
130.906
 20
-92.84269999999999
 11
130.825
 21
-92.619
  0
LINE
  5
780
100
AcDbEntity
  8
BLACK
  6
CONTINUOUS
 62
  256
370
   -1
100
AcDbLine
 10
130.825
 20
-92.619
 11
130.825
 21
-92.381
  0
LINE
  5
781
100
AcDbEntity
  8
BLACK
  6
CONTINUOUS
 62
  256
370
   -1
100
AcDbLine
 10
130.825
 20
-92.381
 11
130.906
 21
-92.15730000000001
  0
LINE
  5
782
100
AcDbEntity
  8
BLACK
  6
CONTINUOUS
 62
  256
370
   -1
100
AcDbLine
 10
130.906
 20
-92.15730000000001
 11
131.059
 21
-91.97490000000001
  0
LINE
  5
783
100
AcDbEntity
  8
BLACK
  6
CONTINUOUS
 62
  256
370
   -1
100
AcDbLine
 10
131.059
 20
-91.97490000000001
 11
131.266
 21
-91.85590000000001
  0
LINE
  5
784
100
AcDbEntity
  8
BLACK
  6
CONTINUOUS
 62
  256
370
   -1
100
AcDbLine
 10
131.266
 20
-91.85590000000001
 11
131.441
 21
-91.825
  0
LINE
  5
785
100
AcDbEntity
  8
BLACK
  6
CONTINUOUS
 62
  256
370
   -1
100
AcDbLine
 10
131.441
 20
-91.825
 11
131.559
 21
-91.825
  0
LINE
  5
786
100
AcDbEntity
  8
BLACK
  6
CONTINUOUS
 62
  256
370
   -1
100
AcDbLine
 10
131.559
 20
-91.825
 11
131.734
 21
-91.85590000000001
  0
LINE
  5
787
100
AcDbEntity
  8
BLACK
  6
CONTINUOUS
 62
  256
370
   -1
100
AcDbLine
 10
133.734
 20
-91.85590000000001
 11
133.941
 21
-91.97490000000001
  0
LINE
  5
788
100
AcDbEntity
  8
BLACK
  6
CONTINUOUS
 62
  256
370
   -1
100
AcDbLine
 10
133.941
 20
-91.97490000000001
 11
134.094
 21
-92.15730000000001
  0
LINE
  5
789
100
AcDbEntity
  8
BLACK
  6
CONTINUOUS
 62
  256
370
   -1
100
AcDbLine
 10
134.094
 20
-92.15730000000001
 11
134.175
 21
-92.381
  0
LINE
  5
78A
100
AcDbEntity
  8
BLACK
  6
CONTINUOUS
 62
  256
370
   -1
100
AcDbLine
 10
134.175
 20
-92.381
 11
134.175
 21
-92.619
  0
LINE
  5
78B
100
AcDbEntity
  8
BLACK
  6
CONTINUOUS
 62
  256
370
   -1
100
AcDbLine
 10
134.175
 20
-92.619
 11
134.094
 21
-92.84269999999999
  0
LINE
  5
78C
100
AcDbEntity
  8
BLACK
  6
CONTINUOUS
 62
  256
370
   -1
100
AcDbLine
 10
134.094
 20
-92.84269999999999
 11
133.941
 21
-93.02509999999999
  0
LINE
  5
78D
100
AcDbEntity
  8
BLACK
  6
CONTINUOUS
 62
  256
370
   -1
100
AcDbLine
 10
133.941
 20
-93.02509999999999
 11
133.734
 21
-93.14409999999999
  0
LINE
  5
78E
100
AcDbEntity
  8
BLACK
  6
CONTINUOUS
 62
  256
370
   -1
100
AcDbLine
 10
133.734
 20
-93.14409999999999
 11
133.559
 21
-93.175
  0
LINE
  5
78F
100
AcDbEntity
  8
BLACK
  6
CONTINUOUS
 62
  256
370
   -1
100
AcDbLine
 10
133.559
 20
-93.175
 11
133.441
 21
-93.175
  0
LINE
  5
790
100
AcDbEntity
  8
BLACK
  6
CONTINUOUS
 62
  256
370
   -1
100
AcDbLine
 10
133.441
 20
-93.175
 11
133.266
 21
-93.14409999999999
  0
LINE
  5
791
100
AcDbEntity
  8
BLACK
  6
CONTINUOUS
 62
  256
370
   -1
100
AcDbLine
 10
133.266
 20
-93.14409999999999
 11
133.059
 21
-93.02509999999999
  0
LINE
  5
792
100
AcDbEntity
  8
BLACK
  6
CONTINUOUS
 62
  256
370
   -1
100
AcDbLine
 10
133.059
 20
-93.02509999999999
 11
132.906
 21
-92.84269999999999
  0
LINE
  5
793
100
AcDbEntity
  8
BLACK
  6
CONTINUOUS
 62
  256
370
   -1
100
AcDbLine
 10
132.906
 20
-92.84269999999999
 11
132.825
 21
-92.619
  0
LINE
  5
794
100
AcDbEntity
  8
BLACK
  6
CONTINUOUS
 62
  256
370
   -1
100
AcDbLine
 10
132.825
 20
-92.619
 11
132.825
 21
-92.381
  0
LINE
  5
795
100
AcDbEntity
  8
BLACK
  6
CONTINUOUS
 62
  256
370
   -1
100
AcDbLine
 10
132.825
 20
-92.381
 11
132.906
 21
-92.15730000000001
  0
LINE
  5
796
100
AcDbEntity
  8
BLACK
  6
CONTINUOUS
 62
  256
370
   -1
100
AcDbLine
 10
132.906
 20
-92.15730000000001
 11
133.059
 21
-91.97490000000001
  0
LINE
  5
797
100
AcDbEntity
  8
BLACK
  6
CONTINUOUS
 62
  256
370
   -1
100
AcDbLine
 10
133.059
 20
-91.97490000000001
 11
133.266
 21
-91.85590000000001
  0
LINE
  5
798
100
AcDbEntity
  8
BLACK
  6
CONTINUOUS
 62
  256
370
   -1
100
AcDbLine
 10
133.266
 20
-91.85590000000001
 11
133.441
 21
-91.825
  0
LINE
  5
799
100
AcDbEntity
  8
BLACK
  6
CONTINUOUS
 62
  256
370
   -1
100
AcDbLine
 10
133.441
 20
-91.825
 11
133.559
 21
-91.825
  0
LINE
  5
79A
100
AcDbEntity
  8
BLACK
  6
CONTINUOUS
 62
  256
370
   -1
100
AcDbLine
 10
133.559
 20
-91.825
 11
133.734
 21
-91.85590000000001
  0
LINE
  5
79B
100
AcDbEntity
  8
BLACK
  6
CONTINUOUS
 62
  256
370
   -1
100
AcDbLine
 10
128.175
 20
-93.175
 11
126.825
 21
-93.175
  0
LINE
  5
79C
100
AcDbEntity
  8
BLACK
  6
CONTINUOUS
 62
  256
370
   -1
100
AcDbLine
 10
126.825
 20
-93.175
 11
126.825
 21
-91.825
  0
LINE
  5
79D
100
AcDbEntity
  8
BLACK
  6
CONTINUOUS
 62
  256
370
   -1
100
AcDbLine
 10
126.825
 20
-91.825
 11
128.175
 21
-91.825
  0
LINE
  5
79E
100
AcDbEntity
  8
BLACK
  6
CONTINUOUS
 62
  256
370
   -1
100
AcDbLine
 10
128.175
 20
-91.825
 11
128.175
 21
-93.175
  0
LINE
  5
79F
100
AcDbEntity
  8
BLACK
  6
CONTINUOUS
 62
  256
370
   -1
100
AcDbLine
 10
115.139
 20
-92.2683
 11
115.261
 21
-92.3389
  0
LINE
  5
7A0
100
AcDbEntity
  8
BLACK
  6
CONTINUOUS
 62
  256
370
   -1
100
AcDbLine
 10
115.261
 20
-92.3389
 11
115.352
 21
-92.4469
  0
LINE
  5
7A1
100
AcDbEntity
  8
BLACK
  6
CONTINUOUS
 62
  256
370
   -1
100
AcDbLine
 10
115.352
 20
-92.4469
 11
115.4
 21
-92.5795
  0
LINE
  5
7A2
100
AcDbEntity
  8
BLACK
  6
CONTINUOUS
 62
  256
370
   -1
100
AcDbLine
 10
115.4
 20
-92.5795
 11
115.4
 21
-92.7205
  0
LINE
  5
7A3
100
AcDbEntity
  8
BLACK
  6
CONTINUOUS
 62
  256
370
   -1
100
AcDbLine
 10
115.4
 20
-92.7205
 11
115.352
 21
-92.8531
  0
LINE
  5
7A4
100
AcDbEntity
  8
BLACK
  6
CONTINUOUS
 62
  256
370
   -1
100
AcDbLine
 10
115.352
 20
-92.8531
 11
115.261
 21
-92.9611
  0
LINE
  5
7A5
100
AcDbEntity
  8
BLACK
  6
CONTINUOUS
 62
  256
370
   -1
100
AcDbLine
 10
115.261
 20
-92.9611
 11
115.139
 21
-93.0317
  0
LINE
  5
7A6
100
AcDbEntity
  8
BLACK
  6
CONTINUOUS
 62
  256
370
   -1
100
AcDbLine
 10
115.139
 20
-93.0317
 11
115
 21
-93.0562
  0
LINE
  5
7A7
100
AcDbEntity
  8
BLACK
  6
CONTINUOUS
 62
  256
370
   -1
100
AcDbLine
 10
115
 20
-93.0562
 11
114.861
 21
-93.0317
  0
LINE
  5
7A8
100
AcDbEntity
  8
BLACK
  6
CONTINUOUS
 62
  256
370
   -1
100
AcDbLine
 10
114.861
 20
-93.0317
 11
114.739
 21
-92.9611
  0
LINE
  5
7A9
100
AcDbEntity
  8
BLACK
  6
CONTINUOUS
 62
  256
370
   -1
100
AcDbLine
 10
114.739
 20
-92.9611
 11
114.648
 21
-92.8531
  0
LINE
  5
7AA
100
AcDbEntity
  8
BLACK
  6
CONTINUOUS
 62
  256
370
   -1
100
AcDbLine
 10
114.648
 20
-92.8531
 11
114.6
 21
-92.7205
  0
LINE
  5
7AB
100
AcDbEntity
  8
BLACK
  6
CONTINUOUS
 62
  256
370
   -1
100
AcDbLine
 10
114.6
 20
-92.7205
 11
114.6
 21
-92.5795
  0
LINE
  5
7AC
100
AcDbEntity
  8
BLACK
  6
CONTINUOUS
 62
  256
370
   -1
100
AcDbLine
 10
114.6
 20
-92.5795
 11
114.648
 21
-92.4469
  0
LINE
  5
7AD
100
AcDbEntity
  8
BLACK
  6
CONTINUOUS
 62
  256
370
   -1
100
AcDbLine
 10
114.648
 20
-92.4469
 11
114.739
 21
-92.3389
  0
LINE
  5
7AE
100
AcDbEntity
  8
BLACK
  6
CONTINUOUS
 62
  256
370
   -1
100
AcDbLine
 10
114.739
 20
-92.3389
 11
114.861
 21
-92.2683
  0
LINE
  5
7AF
100
AcDbEntity
  8
BLACK
  6
CONTINUOUS
 62
  256
370
   -1
100
AcDbLine
 10
114.861
 20
-92.2683
 11
115
 21
-92.24379999999999
  0
LINE
  5
7B0
100
AcDbEntity
  8
BLACK
  6
CONTINUOUS
 62
  256
370
   -1
100
AcDbLine
 10
115
 20
-92.24379999999999
 11
115.139
 21
-92.2683
  0
LINE
  5
7B1
100
AcDbEntity
  8
BLACK
  6
CONTINUOUS
 62
  256
370
   -1
100
AcDbLine
 10
111.939
 20
-92.1183
 11
112.061
 21
-92.1889
  0
LINE
  5
7B2
100
AcDbEntity
  8
BLACK
  6
CONTINUOUS
 62
  256
370
   -1
100
AcDbLine
 10
112.061
 20
-92.1889
 11
112.152
 21
-92.29689999999999
  0
LINE
  5
7B3
100
AcDbEntity
  8
BLACK
  6
CONTINUOUS
 62
  256
370
   -1
100
AcDbLine
 10
112.152
 20
-92.29689999999999
 11
112.2
 21
-92.4295
  0
LINE
  5
7B4
100
AcDbEntity
  8
BLACK
  6
CONTINUOUS
 62
  256
370
   -1
100
AcDbLine
 10
112.2
 20
-92.4295
 11
112.2
 21
-92.5705
  0
LINE
  5
7B5
100
AcDbEntity
  8
BLACK
  6
CONTINUOUS
 62
  256
370
   -1
100
AcDbLine
 10
112.2
 20
-92.5705
 11
112.152
 21
-92.70310000000001
  0
LINE
  5
7B6
100
AcDbEntity
  8
BLACK
  6
CONTINUOUS
 62
  256
370
   -1
100
AcDbLine
 10
112.152
 20
-92.70310000000001
 11
112.061
 21
-92.8111
  0
LINE
  5
7B7
100
AcDbEntity
  8
BLACK
  6
CONTINUOUS
 62
  256
370
   -1
100
AcDbLine
 10
112.061
 20
-92.8111
 11
111.939
 21
-92.8817
  0
LINE
  5
7B8
100
AcDbEntity
  8
BLACK
  6
CONTINUOUS
 62
  256
370
   -1
100
AcDbLine
 10
111.939
 20
-92.8817
 11
111.8
 21
-92.9062
  0
LINE
  5
7B9
100
AcDbEntity
  8
BLACK
  6
CONTINUOUS
 62
  256
370
   -1
100
AcDbLine
 10
111.8
 20
-92.9062
 11
111.661
 21
-92.8817
  0
LINE
  5
7BA
100
AcDbEntity
  8
BLACK
  6
CONTINUOUS
 62
  256
370
   -1
100
AcDbLine
 10
111.661
 20
-92.8817
 11
111.539
 21
-92.8111
  0
LINE
  5
7BB
100
AcDbEntity
  8
BLACK
  6
CONTINUOUS
 62
  256
370
   -1
100
AcDbLine
 10
111.539
 20
-92.8111
 11
111.448
 21
-92.70310000000001
  0
LINE
  5
7BC
100
AcDbEntity
  8
BLACK
  6
CONTINUOUS
 62
  256
370
   -1
100
AcDbLine
 10
111.448
 20
-92.70310000000001
 11
111.4
 21
-92.5705
  0
LINE
  5
7BD
100
AcDbEntity
  8
BLACK
  6
CONTINUOUS
 62
  256
370
   -1
100
AcDbLine
 10
111.4
 20
-92.5705
 11
111.4
 21
-92.4295
  0
LINE
  5
7BE
100
AcDbEntity
  8
BLACK
  6
CONTINUOUS
 62
  256
370
   -1
100
AcDbLine
 10
111.4
 20
-92.4295
 11
111.448
 21
-92.29689999999999
  0
LINE
  5
7BF
100
AcDbEntity
  8
BLACK
  6
CONTINUOUS
 62
  256
370
   -1
100
AcDbLine
 10
111.448
 20
-92.29689999999999
 11
111.539
 21
-92.1889
  0
LINE
  5
7C0
100
AcDbEntity
  8
BLACK
  6
CONTINUOUS
 62
  256
370
   -1
100
AcDbLine
 10
111.539
 20
-92.1889
 11
111.661
 21
-92.1183
  0
LINE
  5
7C1
100
AcDbEntity
  8
BLACK
  6
CONTINUOUS
 62
  256
370
   -1
100
AcDbLine
 10
111.661
 20
-92.1183
 11
111.8
 21
-92.0938
  0
LINE
  5
7C2
100
AcDbEntity
  8
BLACK
  6
CONTINUOUS
 62
  256
370
   -1
100
AcDbLine
 10
111.8
 20
-92.0938
 11
111.939
 21
-92.1183
  0
CIRCLE
  5
7C3
100
AcDbEntity
  8
BLACK
  6
ByLayer
 62
  256
370
   -1
100
AcDbCircle
 10
108
 20
-91.25
 40
0.2
  0
CIRCLE
  5
7C4
100
AcDbEntity
  8
BLACK
  6
ByLayer
 62
  256
370
   -1
100
AcDbCircle
 10
105.856
 20
-93.10599999999999
 40
0.2
  0
CIRCLE
  5
7C5
100
AcDbEntity
  8
BLACK
  6
ByLayer
 62
  256
370
   -1
100
AcDbCircle
 10
109.25
 20
-91.75
 40
0.2
  0
CIRCLE
  5
7C6
100
AcDbEntity
  8
BLACK
  6
ByLayer
 62
  256
370
   -1
100
AcDbCircle
 10
104.757
 20
-93.0616
 40
0.2
  0
CIRCLE
  5
7C7
100
AcDbEntity
  8
BLACK
  6
ByLayer
 62
  256
370
   -1
100
AcDbCircle
 10
115
 20
-92.65000000000001
 40
0.2
  0
CIRCLE
  5
7C8
100
AcDbEntity
  8
BLACK
  6
ByLayer
 62
  256
370
   -1
100
AcDbCircle
 10
111.8
 20
-92.5
 40
0.2
  0
CIRCLE
  5
7C9
100
AcDbEntity
  8
BLACK
  6
ByLayer
 62
  256
370
   -1
100
AcDbCircle
 10
118.7
 20
-99
 40
0.2
  0
CIRCLE
  5
7CA
100
AcDbEntity
  8
BLACK
  6
ByLayer
 62
  256
370
   -1
100
AcDbCircle
 10
136.3
 20
-97.3
 40
0.2
  0
CIRCLE
  5
7CB
100
AcDbEntity
  8
BLACK
  6
ByLayer
 62
  256
370
   -1
100
AcDbCircle
 10
127.6
 20
-95.40000000000001
 40
0.2
  0
CIRCLE
  5
7CC
100
AcDbEntity
  8
BLACK
  6
ByLayer
 62
  256
370
   -1
100
AcDbCircle
 10
107.5
 20
-108.8
 40
0.2
  0
CIRCLE
  5
7CD
100
AcDbEntity
  8
BLACK
  6
ByLayer
 62
  256
370
   -1
100
AcDbCircle
 10
113.3
 20
-107.1
 40
0.2
  0
CIRCLE
  5
7CE
100
AcDbEntity
  8
BLACK
  6
ByLayer
 62
  256
370
   -1
100
AcDbCircle
 10
107.4
 20
-112.5
 40
0.2
  0
CIRCLE
  5
7CF
100
AcDbEntity
  8
BLACK
  6
ByLayer
 62
  256
370
   -1
100
AcDbCircle
 10
111.9
 20
-113.8
 40
0.2
  0
CIRCLE
  5
7D0
100
AcDbEntity
  8
BLACK
  6
ByLayer
 62
  256
370
   -1
100
AcDbCircle
 10
104.6
 20
-106.5
 40
0.2
  0
CIRCLE
  5
7D1
100
AcDbEntity
  8
BLACK
  6
ByLayer
 62
  256
370
   -1
100
AcDbCircle
 10
154.8
 20
-129.7
 40
0.2
  0
CIRCLE
  5
7D2
100
AcDbEntity
  8
BLACK
  6
ByLayer
 62
  256
370
   -1
100
AcDbCircle
 10
154.5
 20
-95.3
 40
0.2
  0
CIRCLE
  5
7D3
100
AcDbEntity
  8
BLACK
  6
ByLayer
 62
  256
370
   -1
100
AcDbCircle
 10
101.5
 20
-132.1
 40
0.2
  0
CIRCLE
  5
7D4
100
AcDbEntity
  8
BLACK
  6
ByLayer
 62
  256
370
   -1
100
AcDbCircle
 10
106
 20
-104.1
 40
0.2
  0
CIRCLE
  5
7D5
100
AcDbEntity
  8
BLACK
  6
ByLayer
 62
  256
370
   -1
100
AcDbCircle
 10
106
 20
-95.3
 40
0.2
  0
CIRCLE
  5
7D6
100
AcDbEntity
  8
BLACK
  6
ByLayer
 62
  256
370
   -1
100
AcDbCircle
 10
139.6
 20
-95
 40
0.2
  0
CIRCLE
  5
7D7
100
AcDbEntity
  8
BLACK
  6
ByLayer
 62
  256
370
   -1
100
AcDbCircle
 10
109.214
 20
-92.9136
 40
0.2
  0
CIRCLE
  5
7D8
100
AcDbEntity
  8
BLACK
  6
ByLayer
 62
  256
370
   -1
100
AcDbCircle
 10
114.2
 20
-117.5
 40
0.2
  0
CIRCLE
  5
7D9
100
AcDbEntity
  8
BLACK
  6
ByLayer
 62
  256
370
   -1
100
AcDbCircle
 10
112.5
 20
-120.3
 40
0.2
  0
CIRCLE
  5
7DA
100
AcDbEntity
  8
BLACK
  6
ByLayer
 62
  256
370
   -1
100
AcDbCircle
 10
100.413
 20
-95.40000000000001
 40
0.2
  0
CIRCLE
  5
7DB
100
AcDbEntity
  8
BLACK
  6
ByLayer
 62
  256
370
   -1
100
AcDbCircle
 10
101.25
 20
-106.551
 40
0.2
  0
CIRCLE
  5
7DC
100
AcDbEntity
  8
BLACK
  6
ByLayer
 62
  256
370
   -1
100
AcDbCircle
 10
100.65
 20
-97.6198
 40
0.2
  0
CIRCLE
  5
7DD
100
AcDbEntity
  8
BLACK
  6
ByLayer
 62
  256
370
   -1
100
AcDbCircle
 10
100.626
 20
-96.4821
 40
0.2
  0
CIRCLE
  5
7DE
100
AcDbEntity
  8
BLACK
  6
ByLayer
 62
  256
370
   -1
100
AcDbCircle
 10
101.5
 20
-110.5
 40
0.2
  0
CIRCLE
  5
7DF
100
AcDbEntity
  8
BLACK
  6
ByLayer
 62
  256
370
   -1
100
AcDbCircle
 10
104.2
 20
-97.3
 40
0.2
  0
CIRCLE
  5
7E0
100
AcDbEntity
  8
BLACK
  6
ByLayer
 62
  256
370
   -1
100
AcDbCircle
 10
109.5
 20
-125.6
 40
0.2
  0
CIRCLE
  5
7E1
100
AcDbEntity
  8
BLACK
  6
ByLayer
 62
  256
370
   -1
100
AcDbCircle
 10
102.2
 20
-98.55
 40
0.2
  0
CIRCLE
  5
7E2
100
AcDbEntity
  8
BLACK
  6
ByLayer
 62
  256
370
   -1
100
AcDbCircle
 10
99.90000000000001
 20
-123.3
 40
0.2
  0
CIRCLE
  5
7E3
100
AcDbEntity
  8
BLACK
  6
ByLayer
 62
  256
370
   -1
100
AcDbCircle
 10
102.349
 20
-96.32599999999999
 40
0.2
  0
CIRCLE
  5
7E4
100
AcDbEntity
  8
BLACK
  6
ByLayer
 62
  256
370
   -1
100
AcDbCircle
 10
103.992
 20
-116.535
 40
0.2
  0
CIRCLE
  5
7E5
100
AcDbEntity
  8
BLACK
  6
ByLayer
 62
  256
370
   -1
100
AcDbCircle
 10
103.661
 20
-93.1561
 40
0.2
  0
ENDSEC
  0
SECTION
  2
OBJECTS
  0
DICTIONARY
  5
C
330
0
100
AcDbDictionary
281
    1
  3
ACAD_GROUP
350
D
  0
DICTIONARY
  5
D
330
C
100
AcDbDictionary
281
    1
  0
ENDSEC
  0
EOF
