  0
SECTION
  2
HEADER
  9
$ANGBASE
  50
0.0
  9
$ANGDIR
  70
  1
  9
$MEASUREMENT
  70
0
  0
ENDSEC
  0
SECTION
  2
TABLES
  0
TABLE
  2
LTYPE
  70
4
  0
LTYPE
  5
40F
  2
CONTINUOUS
  70
0
  3
Solid line
  72
65
  73
0
  40
0.0
  0
LTYPE
  5
410
  2
DASHDOT
 70
0
  3
Dash Dot ____ _ ____ _
 72
65
 73
4
 40
2.0
 49
1.25
 49
-0.25
 49
0.25
 49
-0.25
  0
LTYPE
  5
411
  2
DASHED
 70
0
  3
Dashed __ __ __ __ __
 72
65
 73
2
 40
0.75
 49
0.5
 49
-0.25
  0
LTYPE
  5
43B
  2
DOTTED
 70
0
  3
Dotted .  .  .  .
 72
65
 73
2
 40
0.2
 49
0.0
 49
-0.2
  0
ENDTAB
  0
TABLE
  2
STYLE
  70
4
  0
STYLE
  2
KICAD
  70
0
  40
0
  41
1
  42
1
  50
0
  71
0
  3
isocp.shx
  0
STYLE
  2
KICADB
  70
0
  40
0
  41
1
  42
1
  50
0
  71
0
  3
isocp.shx
  0
STYLE
  2
KICADI
  70
0
  40
0
  41
1
  42
1
  50
15
  71
0
  3
isocp.shx
  0
STYLE
  2
KICADBI
  70
0
  40
0
  41
1
  42
1
  50
15
  71
0
  3
isocp.shx
  0
ENDTAB
  0
TABLE
  2
LAYER
  70
30
  0
LAYER
  2
BLACK
  70
0
  62
7
  6
CONTINUOUS
  0
LAYER
  2
GRAY1
  70
0
  62
251
  6
CONTINUOUS
  0
LAYER
  2
GRAY2
  70
0
  62
8
  6
CONTINUOUS
  0
LAYER
  2
GRAY3
  70
0
  62
9
  6
CONTINUOUS
  0
LAYER
  2
WHITE
  70
0
  62
7
  6
CONTINUOUS
  0
LAYER
  2
LYELLOW
  70
0
  62
51
  6
CONTINUOUS
  0
LAYER
  2
BLUE1
  70
0
  62
178
  6
CONTINUOUS
  0
LAYER
  2
GREEN1
  70
0
  62
98
  6
CONTINUOUS
  0
LAYER
  2
CYAN1
  70
0
  62
138
  6
CONTINUOUS
  0
LAYER
  2
RED1
  70
0
  62
18
  6
CONTINUOUS
  0
LAYER
  2
MAGENTA1
  70
0
  62
228
  6
CONTINUOUS
  0
LAYER
  2
BROWN1
  70
0
  62
58
  6
CONTINUOUS
  0
LAYER
  2
BLUE2
  70
0
  62
5
  6
CONTINUOUS
  0
LAYER
  2
GREEN2
  70
0
  62
3
  6
CONTINUOUS
  0
LAYER
  2
CYAN2
  70
0
  62
4
  6
CONTINUOUS
  0
LAYER
  2
RED2
  70
0
  62
1
  6
CONTINUOUS
  0
LAYER
  2
MAGENTA2
  70
0
  62
6
  6
CONTINUOUS
  0
LAYER
  2
BROWN2
  70
0
  62
54
  6
CONTINUOUS
  0
LAYER
  2
BLUE3
  70
0
  62
171
  6
CONTINUOUS
  0
LAYER
  2
GREEN3
  70
0
  62
91
  6
CONTINUOUS
  0
LAYER
  2
CYAN3
  70
0
  62
131
  6
CONTINUOUS
  0
LAYER
  2
RED3
  70
0
  62
11
  6
CONTINUOUS
  0
LAYER
  2
MAGENTA3
  70
0
  62
221
  6
CONTINUOUS
  0
LAYER
  2
YELLOW3
  70
0
  62
2
  6
CONTINUOUS
  0
LAYER
  2
BLUE4
  70
0
  62
5
  6
CONTINUOUS
  0
LAYER
  2
GREEN4
  70
0
  62
3
  6
CONTINUOUS
  0
LAYER
  2
CYAN4
  70
0
  62
4
  6
CONTINUOUS
  0
LAYER
  2
RED4
  70
0
  62
1
  6
CONTINUOUS
  0
LAYER
  2
MAGENTA4
  70
0
  62
6
  6
CONTINUOUS
  0
LAYER
  2
YELLOW4
  70
0
  62
2
  6
CONTINUOUS
  0
ENDTAB
  0
ENDSEC
  0
SECTION
  2
ENTITIES
0
LINE
8
BLACK
6
CONTINUOUS
10
160.798
20
-136.513
11
160.798
21
-136.517
0
LINE
8
BLACK
6
CONTINUOUS
10
160.798
20
-136.517
11
160.795
21
-136.521
0
LINE
8
BLACK
6
CONTINUOUS
10
160.795
20
-136.521
11
160.794
21
-136.525
0
LINE
8
BLACK
6
CONTINUOUS
10
160.794
20
-136.525
11
160.791
21
-136.529
0
LINE
8
BLACK
6
CONTINUOUS
10
160.791
20
-136.529
11
160.789
21
-136.533
0
LINE
8
BLACK
6
CONTINUOUS
10
160.789
20
-136.533
11
160.785
21
-136.535
0
LINE
8
BLACK
6
CONTINUOUS
10
160.785
20
-136.535
11
160.783
21
-136.539
0
LINE
8
BLACK
6
CONTINUOUS
10
160.783
20
-136.539
11
160.779
21
-136.541
0
LINE
8
BLACK
6
CONTINUOUS
10
160.779
20
-136.541
11
160.775
21
-136.544
0
LINE
8
BLACK
6
CONTINUOUS
10
160.775
20
-136.544
11
160.771
21
-136.545
0
LINE
8
BLACK
6
CONTINUOUS
10
160.771
20
-136.545
11
160.767
21
-136.548
0
LINE
8
BLACK
6
CONTINUOUS
10
160.767
20
-136.548
11
160.763
21
-136.548
0
LINE
8
BLACK
6
CONTINUOUS
10
160.763
20
-136.548
11
160.759
21
-136.55
0
LINE
8
BLACK
6
CONTINUOUS
10
160.759
20
-136.55
11
97.4912
21
-136.55
0
LINE
8
BLACK
6
CONTINUOUS
10
97.4912
20
-136.55
11
97.487
21
-136.548
0
LINE
8
BLACK
6
CONTINUOUS
10
97.487
20
-136.548
11
97.4826
21
-136.548
0
LINE
8
BLACK
6
CONTINUOUS
10
97.4826
20
-136.548
11
97.4788
21
-136.545
0
LINE
8
BLACK
6
CONTINUOUS
10
97.4788
20
-136.545
11
97.4746
21
-136.544
0
LINE
8
BLACK
6
CONTINUOUS
10
97.4746
20
-136.544
11
97.4712
21
-136.541
0
LINE
8
BLACK
6
CONTINUOUS
10
97.4712
20
-136.541
11
97.4674
21
-136.539
0
LINE
8
BLACK
6
CONTINUOUS
10
97.4674
20
-136.539
11
97.4645
21
-136.535
0
LINE
8
BLACK
6
CONTINUOUS
10
97.4645
20
-136.535
11
97.4611
21
-136.533
0
LINE
8
BLACK
6
CONTINUOUS
10
97.4611
20
-136.533
11
97.4589
21
-136.529
0
LINE
8
BLACK
6
CONTINUOUS
10
97.4589
20
-136.529
11
97.456
21
-136.525
0
LINE
8
BLACK
6
CONTINUOUS
10
97.456
20
-136.525
11
97.4545
21
-136.521
0
LINE
8
BLACK
6
CONTINUOUS
10
97.4545
20
-136.521
11
97.4523
21
-136.517
0
LINE
8
BLACK
6
CONTINUOUS
10
97.4523
20
-136.517
11
97.4515
21
-136.513
0
LINE
8
BLACK
6
CONTINUOUS
10
97.4515
20
-136.513
11
97.45
21
-136.509
0
LINE
8
BLACK
6
CONTINUOUS
10
97.45
20
-136.509
11
97.45
21
-136.491
0
LINE
8
BLACK
6
CONTINUOUS
10
97.45
20
-136.491
11
97.45
21
-90.0088
0
LINE
8
BLACK
6
CONTINUOUS
10
97.45
20
-90.0088
11
97.45
21
-90.0088
0
LINE
8
BLACK
6
CONTINUOUS
10
97.45
20
-90.0088
11
97.45
21
-89.9912
0
LINE
8
BLACK
6
CONTINUOUS
10
97.45
20
-89.9912
11
97.4515
21
-89.987
0
LINE
8
BLACK
6
CONTINUOUS
10
97.4515
20
-89.987
11
97.4523
21
-89.9826
0
LINE
8
BLACK
6
CONTINUOUS
10
97.4523
20
-89.9826
11
97.4545
21
-89.9788
0
LINE
8
BLACK
6
CONTINUOUS
10
97.4545
20
-89.9788
11
97.456
21
-89.9746
0
LINE
8
BLACK
6
CONTINUOUS
10
97.456
20
-89.9746
11
97.4589
21
-89.9712
0
LINE
8
BLACK
6
CONTINUOUS
10
97.4589
20
-89.9712
11
97.4611
21
-89.9674
0
LINE
8
BLACK
6
CONTINUOUS
10
97.4611
20
-89.9674
11
97.4645
21
-89.9645
0
LINE
8
BLACK
6
CONTINUOUS
10
97.4645
20
-89.9645
11
97.4674
21
-89.9611
0
LINE
8
BLACK
6
CONTINUOUS
10
97.4674
20
-89.9611
11
97.4712
21
-89.9589
0
LINE
8
BLACK
6
CONTINUOUS
10
97.4712
20
-89.9589
11
97.4746
21
-89.956
0
LINE
8
BLACK
6
CONTINUOUS
10
97.4746
20
-89.956
11
97.4788
21
-89.9545
0
LINE
8
BLACK
6
CONTINUOUS
10
97.4788
20
-89.9545
11
97.4826
21
-89.9523
0
LINE
8
BLACK
6
CONTINUOUS
10
97.4826
20
-89.9523
11
97.487
21
-89.9515
0
LINE
8
BLACK
6
CONTINUOUS
10
97.487
20
-89.9515
11
97.4912
21
-89.95
0
LINE
8
BLACK
6
CONTINUOUS
10
97.4912
20
-89.95
11
160.759
21
-89.95
0
LINE
8
BLACK
6
CONTINUOUS
10
160.759
20
-89.95
11
160.763
21
-89.9515
0
LINE
8
BLACK
6
CONTINUOUS
10
160.763
20
-89.9515
11
160.767
21
-89.9523
0
LINE
8
BLACK
6
CONTINUOUS
10
160.767
20
-89.9523
11
160.771
21
-89.9545
0
LINE
8
BLACK
6
CONTINUOUS
10
160.771
20
-89.9545
11
160.775
21
-89.956
0
LINE
8
BLACK
6
CONTINUOUS
10
160.775
20
-89.956
11
160.779
21
-89.9589
0
LINE
8
BLACK
6
CONTINUOUS
10
160.779
20
-89.9589
11
160.783
21
-89.9611
0
LINE
8
BLACK
6
CONTINUOUS
10
160.783
20
-89.9611
11
160.785
21
-89.9645
0
LINE
8
BLACK
6
CONTINUOUS
10
160.785
20
-89.9645
11
160.789
21
-89.9674
0
LINE
8
BLACK
6
CONTINUOUS
10
160.789
20
-89.9674
11
160.791
21
-89.9712
0
LINE
8
BLACK
6
CONTINUOUS
10
160.791
20
-89.9712
11
160.794
21
-89.9746
0
LINE
8
BLACK
6
CONTINUOUS
10
160.794
20
-89.9746
11
160.795
21
-89.9788
0
LINE
8
BLACK
6
CONTINUOUS
10
160.795
20
-89.9788
11
160.798
21
-89.9826
0
LINE
8
BLACK
6
CONTINUOUS
10
160.798
20
-89.9826
11
160.798
21
-89.987
0
LINE
8
BLACK
6
CONTINUOUS
10
160.798
20
-89.987
11
160.8
21
-89.9912
0
LINE
8
BLACK
6
CONTINUOUS
10
160.8
20
-89.9912
11
160.8
21
-136.509
0
LINE
8
BLACK
6
CONTINUOUS
10
160.8
20
-136.509
11
160.798
21
-136.513
0
LINE
8
BLACK
6
CONTINUOUS
10
97.55
20
-90.05
11
97.55
21
-136.45
0
LINE
8
BLACK
6
CONTINUOUS
10
97.55
20
-136.45
11
160.7
21
-136.45
0
LINE
8
BLACK
6
CONTINUOUS
10
160.7
20
-136.45
11
160.7
21
-90.05
0
LINE
8
BLACK
6
CONTINUOUS
10
160.7
20
-90.05
11
97.55
21
-90.05
0
LINE
8
BLACK
6
CONTINUOUS
10
143.252
20
-116.223
11
142.858
21
-117.668
0
LINE
8
BLACK
6
CONTINUOUS
10
142.858
20
-117.668
11
142.313
21
-119.062
0
LINE
8
BLACK
6
CONTINUOUS
10
142.313
20
-119.062
11
141.623
21
-120.391
0
LINE
8
BLACK
6
CONTINUOUS
10
141.623
20
-120.391
11
140.796
21
-121.639
0
LINE
8
BLACK
6
CONTINUOUS
10
140.796
20
-121.639
11
139.84
21
-122.792
0
LINE
8
BLACK
6
CONTINUOUS
10
139.84
20
-122.792
11
138.768
21
-123.836
0
LINE
8
BLACK
6
CONTINUOUS
10
138.768
20
-123.836
11
137.59
21
-124.761
0
LINE
8
BLACK
6
CONTINUOUS
10
137.59
20
-124.761
11
136.321
21
-125.556
0
LINE
8
BLACK
6
CONTINUOUS
10
136.321
20
-125.556
11
134.975
21
-126.211
0
LINE
8
BLACK
6
CONTINUOUS
10
134.975
20
-126.211
11
133.567
21
-126.719
0
LINE
8
BLACK
6
CONTINUOUS
10
133.567
20
-126.719
11
132.112
21
-127.075
0
LINE
8
BLACK
6
CONTINUOUS
10
132.112
20
-127.075
11
130.628
21
-127.275
0
LINE
8
BLACK
6
CONTINUOUS
10
130.628
20
-127.275
11
129.132
21
-127.315
0
LINE
8
BLACK
6
CONTINUOUS
10
129.132
20
-127.315
11
127.639
21
-127.196
0
LINE
8
BLACK
6
CONTINUOUS
10
127.639
20
-127.196
11
126.168
21
-126.92
0
LINE
8
BLACK
6
CONTINUOUS
10
126.168
20
-126.92
11
124.734
21
-126.488
0
LINE
8
BLACK
6
CONTINUOUS
10
124.734
20
-126.488
11
123.354
21
-125.907
0
LINE
8
BLACK
6
CONTINUOUS
10
123.354
20
-125.907
11
122.044
21
-125.182
0
LINE
8
BLACK
6
CONTINUOUS
10
122.044
20
-125.182
11
120.818
21
-124.322
0
LINE
8
BLACK
6
CONTINUOUS
10
120.818
20
-124.322
11
119.691
21
-123.337
0
LINE
8
BLACK
6
CONTINUOUS
10
119.691
20
-123.337
11
118.675
21
-122.237
0
LINE
8
BLACK
6
CONTINUOUS
10
118.675
20
-122.237
11
117.781
21
-121.036
0
LINE
8
BLACK
6
CONTINUOUS
10
117.781
20
-121.036
11
117.02
21
-119.747
0
LINE
8
BLACK
6
CONTINUOUS
10
117.02
20
-119.747
11
116.4
21
-118.384
0
LINE
8
BLACK
6
CONTINUOUS
10
116.4
20
-118.384
11
115.929
21
-116.963
0
LINE
8
BLACK
6
CONTINUOUS
10
115.929
20
-116.963
11
115.611
21
-115.5
0
LINE
8
BLACK
6
CONTINUOUS
10
115.611
20
-115.5
11
115.451
21
-114.011
0
LINE
8
BLACK
6
CONTINUOUS
10
115.451
20
-114.011
11
115.449
21
-112.514
0
LINE
8
BLACK
6
CONTINUOUS
10
115.449
20
-112.514
11
115.607
21
-111.025
0
LINE
8
BLACK
6
CONTINUOUS
10
115.607
20
-111.025
11
115.922
21
-109.561
0
LINE
8
BLACK
6
CONTINUOUS
10
115.922
20
-109.561
11
116.391
21
-108.139
0
LINE
8
BLACK
6
CONTINUOUS
10
116.391
20
-108.139
11
117.008
21
-106.775
0
LINE
8
BLACK
6
CONTINUOUS
10
117.008
20
-106.775
11
117.767
21
-105.484
0
LINE
8
BLACK
6
CONTINUOUS
10
117.767
20
-105.484
11
118.659
21
-104.281
0
LINE
8
BLACK
6
CONTINUOUS
10
118.659
20
-104.281
11
119.673
21
-103.18
0
LINE
8
BLACK
6
CONTINUOUS
10
119.673
20
-103.18
11
120.799
21
-102.193
0
LINE
8
BLACK
6
CONTINUOUS
10
120.799
20
-102.193
11
122.023
21
-101.331
0
LINE
8
BLACK
6
CONTINUOUS
10
122.023
20
-101.331
11
123.332
21
-100.604
0
LINE
8
BLACK
6
CONTINUOUS
10
123.332
20
-100.604
11
124.711
21
-100.02
0
LINE
8
BLACK
6
CONTINUOUS
10
124.711
20
-100.02
11
126.144
21
-99.5861
0
LINE
8
BLACK
6
CONTINUOUS
10
126.144
20
-99.5861
11
127.615
21
-99.3069
0
LINE
8
BLACK
6
CONTINUOUS
10
127.615
20
-99.3069
11
129.107
21
-99.1855
0
LINE
8
BLACK
6
CONTINUOUS
10
129.107
20
-99.1855
11
130.604
21
-99.2234
0
LINE
8
BLACK
6
CONTINUOUS
10
130.604
20
-99.2234
11
132.088
21
-99.4201
0
LINE
8
BLACK
6
CONTINUOUS
10
132.088
20
-99.4201
11
133.543
21
-99.7734
0
LINE
8
BLACK
6
CONTINUOUS
10
133.543
20
-99.7734
11
134.952
21
-100.279
0
LINE
8
BLACK
6
CONTINUOUS
10
134.952
20
-100.279
11
136.3
21
-100.932
0
LINE
8
BLACK
6
CONTINUOUS
10
136.3
20
-100.932
11
137.57
21
-101.725
0
LINE
8
BLACK
6
CONTINUOUS
10
137.57
20
-101.725
11
138.749
21
-102.647
0
LINE
8
BLACK
6
CONTINUOUS
10
138.749
20
-102.647
11
139.824
21
-103.69
0
LINE
8
BLACK
6
CONTINUOUS
10
139.824
20
-103.69
11
140.781
21
-104.841
0
LINE
8
BLACK
6
CONTINUOUS
10
140.781
20
-104.841
11
141.611
21
-106.088
0
LINE
8
BLACK
6
CONTINUOUS
10
141.611
20
-106.088
11
142.303
21
-107.415
0
LINE
8
BLACK
6
CONTINUOUS
10
142.303
20
-107.415
11
142.851
21
-108.809
0
LINE
8
BLACK
6
CONTINUOUS
10
142.851
20
-108.809
11
143.247
21
-110.253
0
LINE
8
BLACK
6
CONTINUOUS
10
143.247
20
-110.253
11
143.488
21
-111.73
0
LINE
8
BLACK
6
CONTINUOUS
10
143.488
20
-111.73
11
143.57
21
-113.225
0
LINE
8
BLACK
6
CONTINUOUS
10
143.57
20
-113.225
11
143.57
21
-113.25
0
LINE
8
BLACK
6
CONTINUOUS
10
143.57
20
-113.25
11
143.49
21
-114.745
0
LINE
8
BLACK
6
CONTINUOUS
10
143.49
20
-114.745
11
143.252
21
-116.223
0
LINE
8
BLACK
6
CONTINUOUS
10
143.135
20
-110.302
11
142.744
21
-108.87
0
LINE
8
BLACK
6
CONTINUOUS
10
142.744
20
-108.87
11
142.204
21
-107.487
0
LINE
8
BLACK
6
CONTINUOUS
10
142.204
20
-107.487
11
141.52
21
-106.17
0
LINE
8
BLACK
6
CONTINUOUS
10
141.52
20
-106.17
11
140.699
21
-104.933
0
LINE
8
BLACK
6
CONTINUOUS
10
140.699
20
-104.933
11
139.752
21
-103.79
0
LINE
8
BLACK
6
CONTINUOUS
10
139.752
20
-103.79
11
138.689
21
-102.754
0
LINE
8
BLACK
6
CONTINUOUS
10
138.689
20
-102.754
11
137.521
21
-101.837
0
LINE
8
BLACK
6
CONTINUOUS
10
137.521
20
-101.837
11
136.263
21
-101.049
0
LINE
8
BLACK
6
CONTINUOUS
10
136.263
20
-101.049
11
134.928
21
-100.399
0
LINE
8
BLACK
6
CONTINUOUS
10
134.928
20
-100.399
11
133.532
21
-99.8954
0
LINE
8
BLACK
6
CONTINUOUS
10
133.532
20
-99.8954
11
132.09
21
-99.5426
0
LINE
8
BLACK
6
CONTINUOUS
10
132.09
20
-99.5426
11
130.619
21
-99.3449
0
LINE
8
BLACK
6
CONTINUOUS
10
130.619
20
-99.3449
11
129.135
21
-99.3048
0
LINE
8
BLACK
6
CONTINUOUS
10
129.135
20
-99.3048
11
127.655
21
-99.4225
0
LINE
8
BLACK
6
CONTINUOUS
10
127.655
20
-99.4225
11
126.196
21
-99.6969
0
LINE
8
BLACK
6
CONTINUOUS
10
126.196
20
-99.6969
11
124.775
21
-100.125
0
LINE
8
BLACK
6
CONTINUOUS
10
124.775
20
-100.125
11
123.407
21
-100.701
0
LINE
8
BLACK
6
CONTINUOUS
10
123.407
20
-100.701
11
122.108
21
-101.42
0
LINE
8
BLACK
6
CONTINUOUS
10
122.108
20
-101.42
11
120.892
21
-102.272
0
LINE
8
BLACK
6
CONTINUOUS
10
120.892
20
-102.272
11
119.775
21
-103.249
0
LINE
8
BLACK
6
CONTINUOUS
10
119.775
20
-103.249
11
118.767
21
-104.339
0
LINE
8
BLACK
6
CONTINUOUS
10
118.767
20
-104.339
11
117.881
21
-105.53
0
LINE
8
BLACK
6
CONTINUOUS
10
117.881
20
-105.53
11
117.126
21
-106.809
0
LINE
8
BLACK
6
CONTINUOUS
10
117.126
20
-106.809
11
116.512
21
-108.16
0
LINE
8
BLACK
6
CONTINUOUS
10
116.512
20
-108.16
11
116.044
21
-109.569
0
LINE
8
BLACK
6
CONTINUOUS
10
116.044
20
-109.569
11
115.729
21
-111.02
0
LINE
8
BLACK
6
CONTINUOUS
10
115.729
20
-111.02
11
115.57
21
-112.496
0
LINE
8
BLACK
6
CONTINUOUS
10
115.57
20
-112.496
11
115.569
21
-113.98
0
LINE
8
BLACK
6
CONTINUOUS
10
115.569
20
-113.98
11
115.726
21
-115.456
0
LINE
8
BLACK
6
CONTINUOUS
10
115.726
20
-115.456
11
116.038
21
-116.908
0
LINE
8
BLACK
6
CONTINUOUS
10
116.038
20
-116.908
11
116.503
21
-118.317
0
LINE
8
BLACK
6
CONTINUOUS
10
116.503
20
-118.317
11
117.115
21
-119.67
0
LINE
8
BLACK
6
CONTINUOUS
10
117.115
20
-119.67
11
117.867
21
-120.95
0
LINE
8
BLACK
6
CONTINUOUS
10
117.867
20
-120.95
11
118.751
21
-122.142
0
LINE
8
BLACK
6
CONTINUOUS
10
118.751
20
-122.142
11
119.757
21
-123.234
0
LINE
8
BLACK
6
CONTINUOUS
10
119.757
20
-123.234
11
120.873
21
-124.213
0
LINE
8
BLACK
6
CONTINUOUS
10
120.873
20
-124.213
11
122.087
21
-125.067
0
LINE
8
BLACK
6
CONTINUOUS
10
122.087
20
-125.067
11
123.385
21
-125.788
0
LINE
8
BLACK
6
CONTINUOUS
10
123.385
20
-125.788
11
124.752
21
-126.367
0
LINE
8
BLACK
6
CONTINUOUS
10
124.752
20
-126.367
11
126.172
21
-126.797
0
LINE
8
BLACK
6
CONTINUOUS
10
126.172
20
-126.797
11
127.631
21
-127.074
0
LINE
8
BLACK
6
CONTINUOUS
10
127.631
20
-127.074
11
129.11
21
-127.195
0
LINE
8
BLACK
6
CONTINUOUS
10
129.11
20
-127.195
11
130.595
21
-127.157
0
LINE
8
BLACK
6
CONTINUOUS
10
130.595
20
-127.157
11
132.066
21
-126.962
0
LINE
8
BLACK
6
CONTINUOUS
10
132.066
20
-126.962
11
133.509
21
-126.612
0
LINE
8
BLACK
6
CONTINUOUS
10
133.509
20
-126.612
11
134.906
21
-126.11
0
LINE
8
BLACK
6
CONTINUOUS
10
134.906
20
-126.11
11
136.242
21
-125.463
0
LINE
8
BLACK
6
CONTINUOUS
10
136.242
20
-125.463
11
137.501
21
-124.677
0
LINE
8
BLACK
6
CONTINUOUS
10
137.501
20
-124.677
11
138.67
21
-123.762
0
LINE
8
BLACK
6
CONTINUOUS
10
138.67
20
-123.762
11
139.736
21
-122.728
0
LINE
8
BLACK
6
CONTINUOUS
10
139.736
20
-122.728
11
140.685
21
-121.587
0
LINE
8
BLACK
6
CONTINUOUS
10
140.685
20
-121.587
11
141.507
21
-120.351
0
LINE
8
BLACK
6
CONTINUOUS
10
141.507
20
-120.351
11
142.194
21
-119.035
0
LINE
8
BLACK
6
CONTINUOUS
10
142.194
20
-119.035
11
142.737
21
-117.653
0
LINE
8
BLACK
6
CONTINUOUS
10
142.737
20
-117.653
11
143.13
21
-116.222
0
LINE
8
BLACK
6
CONTINUOUS
10
143.13
20
-116.222
11
143.368
21
-114.757
0
LINE
8
BLACK
6
CONTINUOUS
10
143.368
20
-114.757
11
143.45
21
-113.274
0
LINE
8
BLACK
6
CONTINUOUS
10
143.45
20
-113.274
11
143.45
21
-113.25
0
LINE
8
BLACK
6
CONTINUOUS
10
143.45
20
-113.25
11
143.371
21
-111.768
0
LINE
8
BLACK
6
CONTINUOUS
10
143.371
20
-111.768
11
143.135
21
-110.302
  0
ENDSEC
  0
EOF
