  0
SECTION
  2
HEADER
  9
$ANGBASE
  50
0.0
  9
$ANGDIR
  70
  1
  9
$MEASUREMENT
  70
0
  0
ENDSEC
  0
SECTION
  2
TABLES
  0
TABLE
  2
LTYPE
  70
4
  0
LTYPE
  5
40F
  2
CONTINUOUS
  70
0
  3
Solid line
  72
65
  73
0
  40
0.0
  0
LTYPE
  5
410
  2
DASHDOT
 70
0
  3
Dash Dot ____ _ ____ _
 72
65
 73
4
 40
2.0
 49
1.25
 49
-0.25
 49
0.25
 49
-0.25
  0
LTYPE
  5
411
  2
DASHED
 70
0
  3
Dashed __ __ __ __ __
 72
65
 73
2
 40
0.75
 49
0.5
 49
-0.25
  0
LTYPE
  5
43B
  2
DOTTED
 70
0
  3
Dotted .  .  .  .
 72
65
 73
2
 40
0.2
 49
0.0
 49
-0.2
  0
ENDTAB
  0
TABLE
  2
STYLE
  70
4
  0
STYLE
  2
KICAD
  70
0
  40
0
  41
1
  42
1
  50
0
  71
0
  3
isocp.shx
  0
STYLE
  2
KICADB
  70
0
  40
0
  41
1
  42
1
  50
0
  71
0
  3
isocp.shx
  0
STYLE
  2
KICADI
  70
0
  40
0
  41
1
  42
1
  50
15
  71
0
  3
isocp.shx
  0
STYLE
  2
KICADBI
  70
0
  40
0
  41
1
  42
1
  50
15
  71
0
  3
isocp.shx
  0
ENDTAB
  0
TABLE
  2
LAYER
  70
30
  0
LAYER
  2
BLACK
  70
0
  62
7
  6
CONTINUOUS
  0
LAYER
  2
GRAY1
  70
0
  62
251
  6
CONTINUOUS
  0
LAYER
  2
GRAY2
  70
0
  62
8
  6
CONTINUOUS
  0
LAYER
  2
GRAY3
  70
0
  62
9
  6
CONTINUOUS
  0
LAYER
  2
WHITE
  70
0
  62
7
  6
CONTINUOUS
  0
LAYER
  2
LYELLOW
  70
0
  62
51
  6
CONTINUOUS
  0
LAYER
  2
BLUE1
  70
0
  62
178
  6
CONTINUOUS
  0
LAYER
  2
GREEN1
  70
0
  62
98
  6
CONTINUOUS
  0
LAYER
  2
CYAN1
  70
0
  62
138
  6
CONTINUOUS
  0
LAYER
  2
RED1
  70
0
  62
18
  6
CONTINUOUS
  0
LAYER
  2
MAGENTA1
  70
0
  62
228
  6
CONTINUOUS
  0
LAYER
  2
BROWN1
  70
0
  62
58
  6
CONTINUOUS
  0
LAYER
  2
BLUE2
  70
0
  62
5
  6
CONTINUOUS
  0
LAYER
  2
GREEN2
  70
0
  62
3
  6
CONTINUOUS
  0
LAYER
  2
CYAN2
  70
0
  62
4
  6
CONTINUOUS
  0
LAYER
  2
RED2
  70
0
  62
1
  6
CONTINUOUS
  0
LAYER
  2
MAGENTA2
  70
0
  62
6
  6
CONTINUOUS
  0
LAYER
  2
BROWN2
  70
0
  62
54
  6
CONTINUOUS
  0
LAYER
  2
BLUE3
  70
0
  62
171
  6
CONTINUOUS
  0
LAYER
  2
GREEN3
  70
0
  62
91
  6
CONTINUOUS
  0
LAYER
  2
CYAN3
  70
0
  62
131
  6
CONTINUOUS
  0
LAYER
  2
RED3
  70
0
  62
11
  6
CONTINUOUS
  0
LAYER
  2
MAGENTA3
  70
0
  62
221
  6
CONTINUOUS
  0
LAYER
  2
YELLOW3
  70
0
  62
2
  6
CONTINUOUS
  0
LAYER
  2
BLUE4
  70
0
  62
5
  6
CONTINUOUS
  0
LAYER
  2
GREEN4
  70
0
  62
3
  6
CONTINUOUS
  0
LAYER
  2
CYAN4
  70
0
  62
4
  6
CONTINUOUS
  0
LAYER
  2
RED4
  70
0
  62
1
  6
CONTINUOUS
  0
LAYER
  2
MAGENTA4
  70
0
  62
6
  6
CONTINUOUS
  0
LAYER
  2
YELLOW4
  70
0
  62
2
  6
CONTINUOUS
  0
ENDTAB
  0
ENDSEC
  0
SECTION
  2
ENTITIES
0
LINE
8
BLACK
6
CONTINUOUS
10
103.15
20
-119.7
11
102.25
21
-119.7
0
LINE
8
BLACK
6
CONTINUOUS
10
102.25
20
-119.7
11
102.25
21
-118.5
0
LINE
8
BLACK
6
CONTINUOUS
10
102.25
20
-118.5
11
103.15
21
-118.5
0
LINE
8
BLACK
6
CONTINUOUS
10
103.15
20
-118.5
11
103.15
21
-119.7
0
LINE
8
BLACK
6
CONTINUOUS
10
111.75
20
-119.7
11
110.85
21
-119.7
0
LINE
8
BLACK
6
CONTINUOUS
10
110.85
20
-119.7
11
110.85
21
-118.5
0
LINE
8
BLACK
6
CONTINUOUS
10
110.85
20
-118.5
11
111.75
21
-118.5
0
LINE
8
BLACK
6
CONTINUOUS
10
111.75
20
-118.5
11
111.75
21
-119.7
0
LINE
8
BLACK
6
CONTINUOUS
10
111.75
20
-117.5
11
110.85
21
-117.5
0
LINE
8
BLACK
6
CONTINUOUS
10
110.85
20
-117.5
11
110.85
21
-116.3
0
LINE
8
BLACK
6
CONTINUOUS
10
110.85
20
-116.3
11
111.75
21
-116.3
0
LINE
8
BLACK
6
CONTINUOUS
10
111.75
20
-116.3
11
111.75
21
-117.5
0
LINE
8
BLACK
6
CONTINUOUS
10
103.15
20
-117.5
11
102.25
21
-117.5
0
LINE
8
BLACK
6
CONTINUOUS
10
102.25
20
-117.5
11
102.25
21
-116.3
0
LINE
8
BLACK
6
CONTINUOUS
10
102.25
20
-116.3
11
103.15
21
-116.3
0
LINE
8
BLACK
6
CONTINUOUS
10
103.15
20
-116.3
11
103.15
21
-117.5
0
LINE
8
BLACK
6
CONTINUOUS
10
99.675
20
-105.15
11
98.925
21
-105.15
0
LINE
8
BLACK
6
CONTINUOUS
10
98.925
20
-105.15
11
98.925
21
-103.95
0
LINE
8
BLACK
6
CONTINUOUS
10
98.925
20
-103.95
11
99.675
21
-103.95
0
LINE
8
BLACK
6
CONTINUOUS
10
99.675
20
-103.95
11
99.675
21
-105.15
0
LINE
8
BLACK
6
CONTINUOUS
10
99.675
20
-103.25
11
98.925
21
-103.25
0
LINE
8
BLACK
6
CONTINUOUS
10
98.925
20
-103.25
11
98.925
21
-102.05
0
LINE
8
BLACK
6
CONTINUOUS
10
98.925
20
-102.05
11
99.675
21
-102.05
0
LINE
8
BLACK
6
CONTINUOUS
10
99.675
20
-102.05
11
99.675
21
-103.25
0
LINE
8
BLACK
6
CONTINUOUS
10
106.65
20
-102.875
11
105.45
21
-102.875
0
LINE
8
BLACK
6
CONTINUOUS
10
105.45
20
-102.875
11
105.45
21
-102.125
0
LINE
8
BLACK
6
CONTINUOUS
10
105.45
20
-102.125
11
106.65
21
-102.125
0
LINE
8
BLACK
6
CONTINUOUS
10
106.65
20
-102.125
11
106.65
21
-102.875
0
LINE
8
BLACK
6
CONTINUOUS
10
108.55
20
-102.875
11
107.35
21
-102.875
0
LINE
8
BLACK
6
CONTINUOUS
10
107.35
20
-102.875
11
107.35
21
-102.125
0
LINE
8
BLACK
6
CONTINUOUS
10
107.35
20
-102.125
11
108.55
21
-102.125
0
LINE
8
BLACK
6
CONTINUOUS
10
108.55
20
-102.125
11
108.55
21
-102.875
0
LINE
8
BLACK
6
CONTINUOUS
10
102.475
20
-100.85
11
101.925
21
-100.85
0
LINE
8
BLACK
6
CONTINUOUS
10
101.925
20
-100.85
11
101.925
21
-99.25
0
LINE
8
BLACK
6
CONTINUOUS
10
101.925
20
-99.25
11
102.475
21
-99.25
0
LINE
8
BLACK
6
CONTINUOUS
10
102.475
20
-99.25
11
102.475
21
-100.85
0
LINE
8
BLACK
6
CONTINUOUS
10
103.275
20
-100.85
11
102.725
21
-100.85
0
LINE
8
BLACK
6
CONTINUOUS
10
102.725
20
-100.85
11
102.725
21
-99.25
0
LINE
8
BLACK
6
CONTINUOUS
10
102.725
20
-99.25
11
103.275
21
-99.25
0
LINE
8
BLACK
6
CONTINUOUS
10
103.275
20
-99.25
11
103.275
21
-100.85
0
LINE
8
BLACK
6
CONTINUOUS
10
104.075
20
-100.85
11
103.525
21
-100.85
0
LINE
8
BLACK
6
CONTINUOUS
10
103.525
20
-100.85
11
103.525
21
-99.25
0
LINE
8
BLACK
6
CONTINUOUS
10
103.525
20
-99.25
11
104.075
21
-99.25
0
LINE
8
BLACK
6
CONTINUOUS
10
104.075
20
-99.25
11
104.075
21
-100.85
0
LINE
8
BLACK
6
CONTINUOUS
10
104.875
20
-100.85
11
104.325
21
-100.85
0
LINE
8
BLACK
6
CONTINUOUS
10
104.325
20
-100.85
11
104.325
21
-99.25
0
LINE
8
BLACK
6
CONTINUOUS
10
104.325
20
-99.25
11
104.875
21
-99.25
0
LINE
8
BLACK
6
CONTINUOUS
10
104.875
20
-99.25
11
104.875
21
-100.85
0
LINE
8
BLACK
6
CONTINUOUS
10
105.675
20
-100.85
11
105.125
21
-100.85
0
LINE
8
BLACK
6
CONTINUOUS
10
105.125
20
-100.85
11
105.125
21
-99.25
0
LINE
8
BLACK
6
CONTINUOUS
10
105.125
20
-99.25
11
105.675
21
-99.25
0
LINE
8
BLACK
6
CONTINUOUS
10
105.675
20
-99.25
11
105.675
21
-100.85
0
LINE
8
BLACK
6
CONTINUOUS
10
101.675
20
-100.85
11
101.125
21
-100.85
0
LINE
8
BLACK
6
CONTINUOUS
10
101.125
20
-100.85
11
101.125
21
-99.25
0
LINE
8
BLACK
6
CONTINUOUS
10
101.125
20
-99.25
11
101.675
21
-99.25
0
LINE
8
BLACK
6
CONTINUOUS
10
101.675
20
-99.25
11
101.675
21
-100.85
0
LINE
8
BLACK
6
CONTINUOUS
10
100.875
20
-100.85
11
100.325
21
-100.85
0
LINE
8
BLACK
6
CONTINUOUS
10
100.325
20
-100.85
11
100.325
21
-99.25
0
LINE
8
BLACK
6
CONTINUOUS
10
100.325
20
-99.25
11
100.875
21
-99.25
0
LINE
8
BLACK
6
CONTINUOUS
10
100.875
20
-99.25
11
100.875
21
-100.85
0
LINE
8
BLACK
6
CONTINUOUS
10
106.475
20
-100.85
11
105.925
21
-100.85
0
LINE
8
BLACK
6
CONTINUOUS
10
105.925
20
-100.85
11
105.925
21
-99.25
0
LINE
8
BLACK
6
CONTINUOUS
10
105.925
20
-99.25
11
106.475
21
-99.25
0
LINE
8
BLACK
6
CONTINUOUS
10
106.475
20
-99.25
11
106.475
21
-100.85
0
LINE
8
BLACK
6
CONTINUOUS
10
108.45
20
-98.875
11
106.85
21
-98.875
0
LINE
8
BLACK
6
CONTINUOUS
10
106.85
20
-98.875
11
106.85
21
-98.325
0
LINE
8
BLACK
6
CONTINUOUS
10
106.85
20
-98.325
11
108.45
21
-98.325
0
LINE
8
BLACK
6
CONTINUOUS
10
108.45
20
-98.325
11
108.45
21
-98.875
0
LINE
8
BLACK
6
CONTINUOUS
10
99.95
20
-98.875
11
98.35
21
-98.875
0
LINE
8
BLACK
6
CONTINUOUS
10
98.35
20
-98.875
11
98.35
21
-98.325
0
LINE
8
BLACK
6
CONTINUOUS
10
98.35
20
-98.325
11
99.95
21
-98.325
0
LINE
8
BLACK
6
CONTINUOUS
10
99.95
20
-98.325
11
99.95
21
-98.875
0
LINE
8
BLACK
6
CONTINUOUS
10
108.45
20
-98.075
11
106.85
21
-98.075
0
LINE
8
BLACK
6
CONTINUOUS
10
106.85
20
-98.075
11
106.85
21
-97.525
0
LINE
8
BLACK
6
CONTINUOUS
10
106.85
20
-97.525
11
108.45
21
-97.525
0
LINE
8
BLACK
6
CONTINUOUS
10
108.45
20
-97.525
11
108.45
21
-98.075
0
LINE
8
BLACK
6
CONTINUOUS
10
99.95
20
-98.075
11
98.35
21
-98.075
0
LINE
8
BLACK
6
CONTINUOUS
10
98.35
20
-98.075
11
98.35
21
-97.525
0
LINE
8
BLACK
6
CONTINUOUS
10
98.35
20
-97.525
11
99.95
21
-97.525
0
LINE
8
BLACK
6
CONTINUOUS
10
99.95
20
-97.525
11
99.95
21
-98.075
0
LINE
8
BLACK
6
CONTINUOUS
10
108.45
20
-97.275
11
106.85
21
-97.275
0
LINE
8
BLACK
6
CONTINUOUS
10
106.85
20
-97.275
11
106.85
21
-96.725
0
LINE
8
BLACK
6
CONTINUOUS
10
106.85
20
-96.725
11
108.45
21
-96.725
0
LINE
8
BLACK
6
CONTINUOUS
10
108.45
20
-96.725
11
108.45
21
-97.275
0
LINE
8
BLACK
6
CONTINUOUS
10
99.95
20
-97.275
11
98.35
21
-97.275
0
LINE
8
BLACK
6
CONTINUOUS
10
98.35
20
-97.275
11
98.35
21
-96.725
0
LINE
8
BLACK
6
CONTINUOUS
10
98.35
20
-96.725
11
99.95
21
-96.725
0
LINE
8
BLACK
6
CONTINUOUS
10
99.95
20
-96.725
11
99.95
21
-97.275
0
LINE
8
BLACK
6
CONTINUOUS
10
119.6
20
-96.55
11
117.5
21
-96.55
0
LINE
8
BLACK
6
CONTINUOUS
10
117.5
20
-96.55
11
117.5
21
-94.75
0
LINE
8
BLACK
6
CONTINUOUS
10
117.5
20
-94.75
11
119.6
21
-94.75
0
LINE
8
BLACK
6
CONTINUOUS
10
119.6
20
-94.75
11
119.6
21
-96.55
0
LINE
8
BLACK
6
CONTINUOUS
10
122.5
20
-96.55
11
120.4
21
-96.55
0
LINE
8
BLACK
6
CONTINUOUS
10
120.4
20
-96.55
11
120.4
21
-94.75
0
LINE
8
BLACK
6
CONTINUOUS
10
120.4
20
-94.75
11
122.5
21
-94.75
0
LINE
8
BLACK
6
CONTINUOUS
10
122.5
20
-94.75
11
122.5
21
-96.55
0
LINE
8
BLACK
6
CONTINUOUS
10
108.45
20
-96.475
11
106.85
21
-96.475
0
LINE
8
BLACK
6
CONTINUOUS
10
106.85
20
-96.475
11
106.85
21
-95.925
0
LINE
8
BLACK
6
CONTINUOUS
10
106.85
20
-95.925
11
108.45
21
-95.925
0
LINE
8
BLACK
6
CONTINUOUS
10
108.45
20
-95.925
11
108.45
21
-96.475
0
LINE
8
BLACK
6
CONTINUOUS
10
99.95
20
-96.475
11
98.35
21
-96.475
0
LINE
8
BLACK
6
CONTINUOUS
10
98.35
20
-96.475
11
98.35
21
-95.925
0
LINE
8
BLACK
6
CONTINUOUS
10
98.35
20
-95.925
11
99.95
21
-95.925
0
LINE
8
BLACK
6
CONTINUOUS
10
99.95
20
-95.925
11
99.95
21
-96.475
0
LINE
8
BLACK
6
CONTINUOUS
10
116.575
20
-96.05
11
115.825
21
-96.05
0
LINE
8
BLACK
6
CONTINUOUS
10
115.825
20
-96.05
11
115.825
21
-94.85
0
LINE
8
BLACK
6
CONTINUOUS
10
115.825
20
-94.85
11
116.575
21
-94.85
0
LINE
8
BLACK
6
CONTINUOUS
10
116.575
20
-94.85
11
116.575
21
-96.05
0
LINE
8
BLACK
6
CONTINUOUS
10
124.375
20
-96.05
11
123.625
21
-96.05
0
LINE
8
BLACK
6
CONTINUOUS
10
123.625
20
-96.05
11
123.625
21
-94.85
0
LINE
8
BLACK
6
CONTINUOUS
10
123.625
20
-94.85
11
124.375
21
-94.85
0
LINE
8
BLACK
6
CONTINUOUS
10
124.375
20
-94.85
11
124.375
21
-96.05
0
LINE
8
BLACK
6
CONTINUOUS
10
108.45
20
-95.675
11
106.85
21
-95.675
0
LINE
8
BLACK
6
CONTINUOUS
10
106.85
20
-95.675
11
106.85
21
-95.125
0
LINE
8
BLACK
6
CONTINUOUS
10
106.85
20
-95.125
11
108.45
21
-95.125
0
LINE
8
BLACK
6
CONTINUOUS
10
108.45
20
-95.125
11
108.45
21
-95.675
0
LINE
8
BLACK
6
CONTINUOUS
10
99.95
20
-95.675
11
98.35
21
-95.675
0
LINE
8
BLACK
6
CONTINUOUS
10
98.35
20
-95.675
11
98.35
21
-95.125
0
LINE
8
BLACK
6
CONTINUOUS
10
98.35
20
-95.125
11
99.95
21
-95.125
0
LINE
8
BLACK
6
CONTINUOUS
10
99.95
20
-95.125
11
99.95
21
-95.675
0
LINE
8
BLACK
6
CONTINUOUS
10
108.45
20
-94.875
11
106.85
21
-94.875
0
LINE
8
BLACK
6
CONTINUOUS
10
106.85
20
-94.875
11
106.85
21
-94.325
0
LINE
8
BLACK
6
CONTINUOUS
10
106.85
20
-94.325
11
108.45
21
-94.325
0
LINE
8
BLACK
6
CONTINUOUS
10
108.45
20
-94.325
11
108.45
21
-94.875
0
LINE
8
BLACK
6
CONTINUOUS
10
99.95
20
-94.875
11
98.35
21
-94.875
0
LINE
8
BLACK
6
CONTINUOUS
10
98.35
20
-94.875
11
98.35
21
-94.325
0
LINE
8
BLACK
6
CONTINUOUS
10
98.35
20
-94.325
11
99.95
21
-94.325
0
LINE
8
BLACK
6
CONTINUOUS
10
99.95
20
-94.325
11
99.95
21
-94.875
0
LINE
8
BLACK
6
CONTINUOUS
10
122.5
20
-94.25
11
120.4
21
-94.25
0
LINE
8
BLACK
6
CONTINUOUS
10
120.4
20
-94.25
11
120.4
21
-92.45
0
LINE
8
BLACK
6
CONTINUOUS
10
120.4
20
-92.45
11
122.5
21
-92.45
0
LINE
8
BLACK
6
CONTINUOUS
10
122.5
20
-92.45
11
122.5
21
-94.25
0
LINE
8
BLACK
6
CONTINUOUS
10
119.6
20
-94.25
11
117.5
21
-94.25
0
LINE
8
BLACK
6
CONTINUOUS
10
117.5
20
-94.25
11
117.5
21
-92.45
0
LINE
8
BLACK
6
CONTINUOUS
10
117.5
20
-92.45
11
119.6
21
-92.45
0
LINE
8
BLACK
6
CONTINUOUS
10
119.6
20
-92.45
11
119.6
21
-94.25
0
LINE
8
BLACK
6
CONTINUOUS
10
116.575
20
-94.15
11
115.825
21
-94.15
0
LINE
8
BLACK
6
CONTINUOUS
10
115.825
20
-94.15
11
115.825
21
-92.95
0
LINE
8
BLACK
6
CONTINUOUS
10
115.825
20
-92.95
11
116.575
21
-92.95
0
LINE
8
BLACK
6
CONTINUOUS
10
116.575
20
-92.95
11
116.575
21
-94.15
0
LINE
8
BLACK
6
CONTINUOUS
10
124.375
20
-94.15
11
123.625
21
-94.15
0
LINE
8
BLACK
6
CONTINUOUS
10
123.625
20
-94.15
11
123.625
21
-92.95
0
LINE
8
BLACK
6
CONTINUOUS
10
123.625
20
-92.95
11
124.375
21
-92.95
0
LINE
8
BLACK
6
CONTINUOUS
10
124.375
20
-92.95
11
124.375
21
-94.15
0
LINE
8
BLACK
6
CONTINUOUS
10
99.95
20
-94.075
11
98.35
21
-94.075
0
LINE
8
BLACK
6
CONTINUOUS
10
98.35
20
-94.075
11
98.35
21
-93.525
0
LINE
8
BLACK
6
CONTINUOUS
10
98.35
20
-93.525
11
99.95
21
-93.525
0
LINE
8
BLACK
6
CONTINUOUS
10
99.95
20
-93.525
11
99.95
21
-94.075
0
LINE
8
BLACK
6
CONTINUOUS
10
108.45
20
-94.075
11
106.85
21
-94.075
0
LINE
8
BLACK
6
CONTINUOUS
10
106.85
20
-94.075
11
106.85
21
-93.525
0
LINE
8
BLACK
6
CONTINUOUS
10
106.85
20
-93.525
11
108.45
21
-93.525
0
LINE
8
BLACK
6
CONTINUOUS
10
108.45
20
-93.525
11
108.45
21
-94.075
0
LINE
8
BLACK
6
CONTINUOUS
10
99.95
20
-93.275
11
98.35
21
-93.275
0
LINE
8
BLACK
6
CONTINUOUS
10
98.35
20
-93.275
11
98.35
21
-92.725
0
LINE
8
BLACK
6
CONTINUOUS
10
98.35
20
-92.725
11
99.95
21
-92.725
0
LINE
8
BLACK
6
CONTINUOUS
10
99.95
20
-92.725
11
99.95
21
-93.275
0
LINE
8
BLACK
6
CONTINUOUS
10
108.45
20
-93.275
11
106.85
21
-93.275
0
LINE
8
BLACK
6
CONTINUOUS
10
106.85
20
-93.275
11
106.85
21
-92.725
0
LINE
8
BLACK
6
CONTINUOUS
10
106.85
20
-92.725
11
108.45
21
-92.725
0
LINE
8
BLACK
6
CONTINUOUS
10
108.45
20
-92.725
11
108.45
21
-93.275
0
LINE
8
BLACK
6
CONTINUOUS
10
100.875
20
-92.35
11
100.325
21
-92.35
0
LINE
8
BLACK
6
CONTINUOUS
10
100.325
20
-92.35
11
100.325
21
-90.75
0
LINE
8
BLACK
6
CONTINUOUS
10
100.325
20
-90.75
11
100.875
21
-90.75
0
LINE
8
BLACK
6
CONTINUOUS
10
100.875
20
-90.75
11
100.875
21
-92.35
0
LINE
8
BLACK
6
CONTINUOUS
10
101.675
20
-92.35
11
101.125
21
-92.35
0
LINE
8
BLACK
6
CONTINUOUS
10
101.125
20
-92.35
11
101.125
21
-90.75
0
LINE
8
BLACK
6
CONTINUOUS
10
101.125
20
-90.75
11
101.675
21
-90.75
0
LINE
8
BLACK
6
CONTINUOUS
10
101.675
20
-90.75
11
101.675
21
-92.35
0
LINE
8
BLACK
6
CONTINUOUS
10
102.475
20
-92.35
11
101.925
21
-92.35
0
LINE
8
BLACK
6
CONTINUOUS
10
101.925
20
-92.35
11
101.925
21
-90.75
0
LINE
8
BLACK
6
CONTINUOUS
10
101.925
20
-90.75
11
102.475
21
-90.75
0
LINE
8
BLACK
6
CONTINUOUS
10
102.475
20
-90.75
11
102.475
21
-92.35
0
LINE
8
BLACK
6
CONTINUOUS
10
103.275
20
-92.35
11
102.725
21
-92.35
0
LINE
8
BLACK
6
CONTINUOUS
10
102.725
20
-92.35
11
102.725
21
-90.75
0
LINE
8
BLACK
6
CONTINUOUS
10
102.725
20
-90.75
11
103.275
21
-90.75
0
LINE
8
BLACK
6
CONTINUOUS
10
103.275
20
-90.75
11
103.275
21
-92.35
0
LINE
8
BLACK
6
CONTINUOUS
10
104.075
20
-92.35
11
103.525
21
-92.35
0
LINE
8
BLACK
6
CONTINUOUS
10
103.525
20
-92.35
11
103.525
21
-90.75
0
LINE
8
BLACK
6
CONTINUOUS
10
103.525
20
-90.75
11
104.075
21
-90.75
0
LINE
8
BLACK
6
CONTINUOUS
10
104.075
20
-90.75
11
104.075
21
-92.35
0
LINE
8
BLACK
6
CONTINUOUS
10
104.875
20
-92.35
11
104.325
21
-92.35
0
LINE
8
BLACK
6
CONTINUOUS
10
104.325
20
-92.35
11
104.325
21
-90.75
0
LINE
8
BLACK
6
CONTINUOUS
10
104.325
20
-90.75
11
104.875
21
-90.75
0
LINE
8
BLACK
6
CONTINUOUS
10
104.875
20
-90.75
11
104.875
21
-92.35
0
LINE
8
BLACK
6
CONTINUOUS
10
105.675
20
-92.35
11
105.125
21
-92.35
0
LINE
8
BLACK
6
CONTINUOUS
10
105.125
20
-92.35
11
105.125
21
-90.75
0
LINE
8
BLACK
6
CONTINUOUS
10
105.125
20
-90.75
11
105.675
21
-90.75
0
LINE
8
BLACK
6
CONTINUOUS
10
105.675
20
-90.75
11
105.675
21
-92.35
0
LINE
8
BLACK
6
CONTINUOUS
10
106.475
20
-92.35
11
105.925
21
-92.35
0
LINE
8
BLACK
6
CONTINUOUS
10
105.925
20
-92.35
11
105.925
21
-90.75
0
LINE
8
BLACK
6
CONTINUOUS
10
105.925
20
-90.75
11
106.475
21
-90.75
0
LINE
8
BLACK
6
CONTINUOUS
10
106.475
20
-90.75
11
106.475
21
-92.35
  0
ENDSEC
  0
EOF
