  0
SECTION
  2
HEADER
  9
$ANGBASE
  50
0.0
  9
$ANGDIR
  70
  1
  9
$MEASUREMENT
  70
0
  0
ENDSEC
  0
SECTION
  2
TABLES
  0
TABLE
  2
LTYPE
  70
4
  0
LTYPE
  5
40F
  2
CONTINUOUS
  70
0
  3
Solid line
  72
65
  73
0
  40
0.0
  0
LTYPE
  5
410
  2
DASHDOT
 70
0
  3
Dash Dot ____ _ ____ _
 72
65
 73
4
 40
2.0
 49
1.25
 49
-0.25
 49
0.25
 49
-0.25
  0
LTYPE
  5
411
  2
DASHED
 70
0
  3
Dashed __ __ __ __ __
 72
65
 73
2
 40
0.75
 49
0.5
 49
-0.25
  0
LTYPE
  5
43B
  2
DOTTED
 70
0
  3
Dotted .  .  .  .
 72
65
 73
2
 40
0.2
 49
0.0
 49
-0.2
  0
ENDTAB
  0
TABLE
  2
STYLE
  70
4
  0
STYLE
  2
KICAD
  70
0
  40
0
  41
1
  42
1
  50
0
  71
0
  3
isocp.shx
  0
STYLE
  2
KICADB
  70
0
  40
0
  41
1
  42
1
  50
0
  71
0
  3
isocp.shx
  0
STYLE
  2
KICADI
  70
0
  40
0
  41
1
  42
1
  50
15
  71
0
  3
isocp.shx
  0
STYLE
  2
KICADBI
  70
0
  40
0
  41
1
  42
1
  50
15
  71
0
  3
isocp.shx
  0
ENDTAB
  0
TABLE
  2
LAYER
  70
30
  0
LAYER
  2
BLACK
  70
0
  62
7
  6
CONTINUOUS
  0
LAYER
  2
GRAY1
  70
0
  62
251
  6
CONTINUOUS
  0
LAYER
  2
GRAY2
  70
0
  62
8
  6
CONTINUOUS
  0
LAYER
  2
GRAY3
  70
0
  62
9
  6
CONTINUOUS
  0
LAYER
  2
WHITE
  70
0
  62
7
  6
CONTINUOUS
  0
LAYER
  2
LYELLOW
  70
0
  62
51
  6
CONTINUOUS
  0
LAYER
  2
BLUE1
  70
0
  62
178
  6
CONTINUOUS
  0
LAYER
  2
GREEN1
  70
0
  62
98
  6
CONTINUOUS
  0
LAYER
  2
CYAN1
  70
0
  62
138
  6
CONTINUOUS
  0
LAYER
  2
RED1
  70
0
  62
18
  6
CONTINUOUS
  0
LAYER
  2
MAGENTA1
  70
0
  62
228
  6
CONTINUOUS
  0
LAYER
  2
BROWN1
  70
0
  62
58
  6
CONTINUOUS
  0
LAYER
  2
BLUE2
  70
0
  62
5
  6
CONTINUOUS
  0
LAYER
  2
GREEN2
  70
0
  62
3
  6
CONTINUOUS
  0
LAYER
  2
CYAN2
  70
0
  62
4
  6
CONTINUOUS
  0
LAYER
  2
RED2
  70
0
  62
1
  6
CONTINUOUS
  0
LAYER
  2
MAGENTA2
  70
0
  62
6
  6
CONTINUOUS
  0
LAYER
  2
BROWN2
  70
0
  62
54
  6
CONTINUOUS
  0
LAYER
  2
BLUE3
  70
0
  62
171
  6
CONTINUOUS
  0
LAYER
  2
GREEN3
  70
0
  62
91
  6
CONTINUOUS
  0
LAYER
  2
CYAN3
  70
0
  62
131
  6
CONTINUOUS
  0
LAYER
  2
RED3
  70
0
  62
11
  6
CONTINUOUS
  0
LAYER
  2
MAGENTA3
  70
0
  62
221
  6
CONTINUOUS
  0
LAYER
  2
YELLOW3
  70
0
  62
2
  6
CONTINUOUS
  0
LAYER
  2
BLUE4
  70
0
  62
5
  6
CONTINUOUS
  0
LAYER
  2
GREEN4
  70
0
  62
3
  6
CONTINUOUS
  0
LAYER
  2
CYAN4
  70
0
  62
4
  6
CONTINUOUS
  0
LAYER
  2
RED4
  70
0
  62
1
  6
CONTINUOUS
  0
LAYER
  2
MAGENTA4
  70
0
  62
6
  6
CONTINUOUS
  0
LAYER
  2
YELLOW4
  70
0
  62
2
  6
CONTINUOUS
  0
ENDTAB
  0
ENDSEC
  0
SECTION
  2
ENTITIES
0
LINE
8
BLACK
6
CONTINUOUS
10
115.571
20
-130.937
11
115.177
21
-131.677
0
LINE
8
BLACK
6
CONTINUOUS
10
115.177
20
-131.677
11
114.648
21
-132.326
0
LINE
8
BLACK
6
CONTINUOUS
10
114.648
20
-132.326
11
114.002
21
-132.861
0
LINE
8
BLACK
6
CONTINUOUS
10
114.002
20
-132.861
11
113.264
21
-133.259
0
LINE
8
BLACK
6
CONTINUOUS
10
113.264
20
-133.259
11
112.464
21
-133.507
0
LINE
8
BLACK
6
CONTINUOUS
10
112.464
20
-133.507
11
111.63
21
-133.595
0
LINE
8
BLACK
6
CONTINUOUS
10
111.63
20
-133.595
11
110.795
21
-133.519
0
LINE
8
BLACK
6
CONTINUOUS
10
110.795
20
-133.519
11
109.991
21
-133.282
0
LINE
8
BLACK
6
CONTINUOUS
10
109.991
20
-133.282
11
109.248
21
-132.894
0
LINE
8
BLACK
6
CONTINUOUS
10
109.248
20
-132.894
11
108.595
21
-132.369
0
LINE
8
BLACK
6
CONTINUOUS
10
108.595
20
-132.369
11
108.056
21
-131.727
0
LINE
8
BLACK
6
CONTINUOUS
10
108.056
20
-131.727
11
107.652
21
-130.992
0
LINE
8
BLACK
6
CONTINUOUS
10
107.652
20
-130.992
11
107.399
21
-130.193
0
LINE
8
BLACK
6
CONTINUOUS
10
107.399
20
-130.193
11
107.305
21
-129.36
0
LINE
8
BLACK
6
CONTINUOUS
10
107.305
20
-129.36
11
107.376
21
-128.525
0
LINE
8
BLACK
6
CONTINUOUS
10
107.376
20
-128.525
11
107.607
21
-127.719
0
LINE
8
BLACK
6
CONTINUOUS
10
107.607
20
-127.719
11
107.99
21
-126.973
0
LINE
8
BLACK
6
CONTINUOUS
10
107.99
20
-126.973
11
108.51
21
-126.316
0
LINE
8
BLACK
6
CONTINUOUS
10
108.51
20
-126.316
11
109.149
21
-125.773
0
LINE
8
BLACK
6
CONTINUOUS
10
109.149
20
-125.773
11
109.881
21
-125.364
0
LINE
8
BLACK
6
CONTINUOUS
10
109.881
20
-125.364
11
110.678
21
-125.105
0
LINE
8
BLACK
6
CONTINUOUS
10
110.678
20
-125.105
11
111.51
21
-125.006
0
LINE
8
BLACK
6
CONTINUOUS
10
111.51
20
-125.006
11
111.712
21
-125.021
0
LINE
8
BLACK
6
CONTINUOUS
10
111.712
20
-125.021
11
111.629
21
-124.683
0
LINE
8
BLACK
6
CONTINUOUS
10
111.629
20
-124.683
11
111.623
21
-123.966
0
LINE
8
BLACK
6
CONTINUOUS
10
111.623
20
-123.966
11
111.783
21
-123.267
0
LINE
8
BLACK
6
CONTINUOUS
10
111.783
20
-123.267
11
112.098
21
-122.623
0
LINE
8
BLACK
6
CONTINUOUS
10
112.098
20
-122.623
11
112.554
21
-122.07
0
LINE
8
BLACK
6
CONTINUOUS
10
112.554
20
-122.07
11
113.125
21
-121.636
0
LINE
8
BLACK
6
CONTINUOUS
10
113.125
20
-121.636
11
113.78
21
-121.345
0
LINE
8
BLACK
6
CONTINUOUS
10
113.78
20
-121.345
11
114.484
21
-121.213
0
LINE
8
BLACK
6
CONTINUOUS
10
114.484
20
-121.213
11
115.2
21
-121.246
0
LINE
8
BLACK
6
CONTINUOUS
10
115.2
20
-121.246
11
115.889
21
-121.443
0
LINE
8
BLACK
6
CONTINUOUS
10
115.889
20
-121.443
11
116.515
21
-121.793
0
LINE
8
BLACK
6
CONTINUOUS
10
116.515
20
-121.793
11
117.043
21
-122.278
0
LINE
8
BLACK
6
CONTINUOUS
10
117.043
20
-122.278
11
117.445
21
-122.871
0
LINE
8
BLACK
6
CONTINUOUS
10
117.445
20
-122.871
11
117.7
21
-123.541
0
LINE
8
BLACK
6
CONTINUOUS
10
117.7
20
-123.541
11
117.795
21
-124.251
0
LINE
8
BLACK
6
CONTINUOUS
10
117.795
20
-124.251
11
117.795
21
-124.3
0
LINE
8
BLACK
6
CONTINUOUS
10
117.795
20
-124.3
11
117.712
21
-125.012
0
LINE
8
BLACK
6
CONTINUOUS
10
117.712
20
-125.012
11
117.467
21
-125.686
0
LINE
8
BLACK
6
CONTINUOUS
10
117.467
20
-125.686
11
117.074
21
-126.285
0
LINE
8
BLACK
6
CONTINUOUS
10
117.074
20
-126.285
11
116.554
21
-126.778
0
LINE
8
BLACK
6
CONTINUOUS
10
116.554
20
-126.778
11
115.934
21
-127.138
0
LINE
8
BLACK
6
CONTINUOUS
10
115.934
20
-127.138
11
115.383
21
-127.305
0
LINE
8
BLACK
6
CONTINUOUS
10
115.383
20
-127.305
11
115.524
21
-127.553
0
LINE
8
BLACK
6
CONTINUOUS
10
115.524
20
-127.553
11
115.788
21
-128.348
0
LINE
8
BLACK
6
CONTINUOUS
10
115.788
20
-128.348
11
115.893
21
-129.18
0
LINE
8
BLACK
6
CONTINUOUS
10
115.893
20
-129.18
11
115.895
21
-129.3
0
LINE
8
BLACK
6
CONTINUOUS
10
115.895
20
-129.3
11
115.813
21
-130.134
0
LINE
8
BLACK
6
CONTINUOUS
10
115.813
20
-130.134
11
115.571
21
-130.937
0
LINE
8
BLACK
6
CONTINUOUS
10
111.849
20
-125.31
11
112.157
21
-125.939
0
LINE
8
BLACK
6
CONTINUOUS
10
112.157
20
-125.939
11
112.602
21
-126.48
0
LINE
8
BLACK
6
CONTINUOUS
10
112.602
20
-126.48
11
113.16
21
-126.904
0
LINE
8
BLACK
6
CONTINUOUS
10
113.16
20
-126.904
11
113.8
21
-127.188
0
LINE
8
BLACK
6
CONTINUOUS
10
113.8
20
-127.188
11
114.489
21
-127.318
0
LINE
8
BLACK
6
CONTINUOUS
10
114.489
20
-127.318
11
115.189
21
-127.285
0
LINE
8
BLACK
6
CONTINUOUS
10
115.189
20
-127.285
11
115.278
21
-127.26
0
LINE
8
BLACK
6
CONTINUOUS
10
115.278
20
-127.26
11
115.119
21
-126.962
0
LINE
8
BLACK
6
CONTINUOUS
10
115.119
20
-126.962
11
114.598
21
-126.323
0
LINE
8
BLACK
6
CONTINUOUS
10
114.598
20
-126.323
11
113.963
21
-125.797
0
LINE
8
BLACK
6
CONTINUOUS
10
113.963
20
-125.797
11
113.237
21
-125.405
0
LINE
8
BLACK
6
CONTINUOUS
10
113.237
20
-125.405
11
112.45
21
-125.161
0
LINE
8
BLACK
6
CONTINUOUS
10
112.45
20
-125.161
11
111.799
21
-125.093
0
LINE
8
BLACK
6
CONTINUOUS
10
111.799
20
-125.093
11
111.849
21
-125.31
0
LINE
8
BLACK
6
CONTINUOUS
10
115.506
20
-127.69
11
115.313
21
-127.326
0
LINE
8
BLACK
6
CONTINUOUS
10
115.313
20
-127.326
11
115.248
21
-127.346
0
LINE
8
BLACK
6
CONTINUOUS
10
115.248
20
-127.346
11
114.533
21
-127.39
0
LINE
8
BLACK
6
CONTINUOUS
10
114.533
20
-127.39
11
113.826
21
-127.269
0
LINE
8
BLACK
6
CONTINUOUS
10
113.826
20
-127.269
11
113.167
21
-126.988
0
LINE
8
BLACK
6
CONTINUOUS
10
113.167
20
-126.988
11
112.589
21
-126.564
0
LINE
8
BLACK
6
CONTINUOUS
10
112.589
20
-126.564
11
112.125
21
-126.017
0
LINE
8
BLACK
6
CONTINUOUS
10
112.125
20
-126.017
11
111.799
21
-125.379
0
LINE
8
BLACK
6
CONTINUOUS
10
111.799
20
-125.379
11
111.727
21
-125.085
0
LINE
8
BLACK
6
CONTINUOUS
10
111.727
20
-125.085
11
111.629
21
-125.075
0
LINE
8
BLACK
6
CONTINUOUS
10
111.629
20
-125.075
11
110.808
21
-125.15
0
LINE
8
BLACK
6
CONTINUOUS
10
110.808
20
-125.15
11
110.017
21
-125.383
0
LINE
8
BLACK
6
CONTINUOUS
10
110.017
20
-125.383
11
109.287
21
-125.765
0
LINE
8
BLACK
6
CONTINUOUS
10
109.287
20
-125.765
11
108.644
21
-126.281
0
LINE
8
BLACK
6
CONTINUOUS
10
108.644
20
-126.281
11
108.114
21
-126.913
0
LINE
8
BLACK
6
CONTINUOUS
10
108.114
20
-126.913
11
107.717
21
-127.636
0
LINE
8
BLACK
6
CONTINUOUS
10
107.717
20
-127.636
11
107.467
21
-128.422
0
LINE
8
BLACK
6
CONTINUOUS
10
107.467
20
-128.422
11
107.375
21
-129.241
0
LINE
8
BLACK
6
CONTINUOUS
10
107.375
20
-129.241
11
107.444
21
-130.063
0
LINE
8
BLACK
6
CONTINUOUS
10
107.444
20
-130.063
11
107.672
21
-130.855
0
LINE
8
BLACK
6
CONTINUOUS
10
107.672
20
-130.855
11
108.049
21
-131.589
0
LINE
8
BLACK
6
CONTINUOUS
10
108.049
20
-131.589
11
108.561
21
-132.235
0
LINE
8
BLACK
6
CONTINUOUS
10
108.561
20
-132.235
11
109.189
21
-132.769
0
LINE
8
BLACK
6
CONTINUOUS
10
109.189
20
-132.769
11
109.909
21
-133.172
0
LINE
8
BLACK
6
CONTINUOUS
10
109.909
20
-133.172
11
110.693
21
-133.426
0
LINE
8
BLACK
6
CONTINUOUS
10
110.693
20
-133.426
11
111.512
21
-133.524
0
LINE
8
BLACK
6
CONTINUOUS
10
111.512
20
-133.524
11
112.334
21
-133.461
0
LINE
8
BLACK
6
CONTINUOUS
10
112.334
20
-133.461
11
113.128
21
-133.239
0
LINE
8
BLACK
6
CONTINUOUS
10
113.128
20
-133.239
11
113.864
21
-132.867
0
LINE
8
BLACK
6
CONTINUOUS
10
113.864
20
-132.867
11
114.514
21
-132.36
0
LINE
8
BLACK
6
CONTINUOUS
10
114.514
20
-132.36
11
115.052
21
-131.735
0
LINE
8
BLACK
6
CONTINUOUS
10
115.052
20
-131.735
11
115.46
21
-131.018
0
LINE
8
BLACK
6
CONTINUOUS
10
115.46
20
-131.018
11
115.72
21
-130.236
0
LINE
8
BLACK
6
CONTINUOUS
10
115.72
20
-130.236
11
115.823
21
-129.418
0
LINE
8
BLACK
6
CONTINUOUS
10
115.823
20
-129.418
11
115.825
21
-129.3
0
LINE
8
BLACK
6
CONTINUOUS
10
115.825
20
-129.3
11
115.745
21
-128.479
0
LINE
8
BLACK
6
CONTINUOUS
10
115.745
20
-128.479
11
115.506
21
-127.69
0
LINE
8
BLACK
6
CONTINUOUS
10
117.405
20
-122.946
11
117.021
21
-122.36
0
LINE
8
BLACK
6
CONTINUOUS
10
117.021
20
-122.36
11
116.512
21
-121.878
0
LINE
8
BLACK
6
CONTINUOUS
10
116.512
20
-121.878
11
115.906
21
-121.526
0
LINE
8
BLACK
6
CONTINUOUS
10
115.906
20
-121.526
11
115.236
21
-121.323
0
LINE
8
BLACK
6
CONTINUOUS
10
115.236
20
-121.323
11
114.536
21
-121.279
0
LINE
8
BLACK
6
CONTINUOUS
10
114.536
20
-121.279
11
113.846
21
-121.398
0
LINE
8
BLACK
6
CONTINUOUS
10
113.846
20
-121.398
11
113.201
21
-121.672
0
LINE
8
BLACK
6
CONTINUOUS
10
113.201
20
-121.672
11
112.637
21
-122.088
0
LINE
8
BLACK
6
CONTINUOUS
10
112.637
20
-122.088
11
112.183
21
-122.622
0
LINE
8
BLACK
6
CONTINUOUS
10
112.183
20
-122.622
11
111.865
21
-123.246
0
LINE
8
BLACK
6
CONTINUOUS
10
111.865
20
-123.246
11
111.698
21
-123.926
0
LINE
8
BLACK
6
CONTINUOUS
10
111.698
20
-123.926
11
111.693
21
-124.627
0
LINE
8
BLACK
6
CONTINUOUS
10
111.693
20
-124.627
11
111.784
21
-125.027
0
LINE
8
BLACK
6
CONTINUOUS
10
111.784
20
-125.027
11
112.346
21
-125.07
0
LINE
8
BLACK
6
CONTINUOUS
10
112.346
20
-125.07
11
113.153
21
-125.296
0
LINE
8
BLACK
6
CONTINUOUS
10
113.153
20
-125.296
11
113.901
21
-125.674
0
LINE
8
BLACK
6
CONTINUOUS
10
113.901
20
-125.674
11
114.562
21
-126.19
0
LINE
8
BLACK
6
CONTINUOUS
10
114.562
20
-126.19
11
115.11
21
-126.824
0
LINE
8
BLACK
6
CONTINUOUS
10
115.11
20
-126.824
11
115.346
21
-127.24
0
LINE
8
BLACK
6
CONTINUOUS
10
115.346
20
-127.24
11
115.862
21
-127.093
0
LINE
8
BLACK
6
CONTINUOUS
10
115.862
20
-127.093
11
116.474
21
-126.75
0
LINE
8
BLACK
6
CONTINUOUS
10
116.474
20
-126.75
11
116.99
21
-126.277
0
LINE
8
BLACK
6
CONTINUOUS
10
116.99
20
-126.277
11
117.383
21
-125.697
0
LINE
8
BLACK
6
CONTINUOUS
10
117.383
20
-125.697
11
117.633
21
-125.042
0
LINE
8
BLACK
6
CONTINUOUS
10
117.633
20
-125.042
11
117.725
21
-124.348
0
LINE
8
BLACK
6
CONTINUOUS
10
117.725
20
-124.348
11
117.725
21
-124.3
0
LINE
8
BLACK
6
CONTINUOUS
10
117.725
20
-124.3
11
117.644
21
-123.604
0
LINE
8
BLACK
6
CONTINUOUS
10
117.644
20
-123.604
11
117.405
21
-122.946
0
LINE
8
BLACK
6
CONTINUOUS
10
150.771
20
-130.937
11
150.377
21
-131.677
0
LINE
8
BLACK
6
CONTINUOUS
10
150.377
20
-131.677
11
149.848
21
-132.326
0
LINE
8
BLACK
6
CONTINUOUS
10
149.848
20
-132.326
11
149.202
21
-132.861
0
LINE
8
BLACK
6
CONTINUOUS
10
149.202
20
-132.861
11
148.464
21
-133.259
0
LINE
8
BLACK
6
CONTINUOUS
10
148.464
20
-133.259
11
147.664
21
-133.507
0
LINE
8
BLACK
6
CONTINUOUS
10
147.664
20
-133.507
11
146.83
21
-133.595
0
LINE
8
BLACK
6
CONTINUOUS
10
146.83
20
-133.595
11
145.995
21
-133.519
0
LINE
8
BLACK
6
CONTINUOUS
10
145.995
20
-133.519
11
145.191
21
-133.282
0
LINE
8
BLACK
6
CONTINUOUS
10
145.191
20
-133.282
11
144.448
21
-132.894
0
LINE
8
BLACK
6
CONTINUOUS
10
144.448
20
-132.894
11
143.795
21
-132.369
0
LINE
8
BLACK
6
CONTINUOUS
10
143.795
20
-132.369
11
143.256
21
-131.727
0
LINE
8
BLACK
6
CONTINUOUS
10
143.256
20
-131.727
11
142.852
21
-130.992
0
LINE
8
BLACK
6
CONTINUOUS
10
142.852
20
-130.992
11
142.599
21
-130.193
0
LINE
8
BLACK
6
CONTINUOUS
10
142.599
20
-130.193
11
142.505
21
-129.36
0
LINE
8
BLACK
6
CONTINUOUS
10
142.505
20
-129.36
11
142.576
21
-128.525
0
LINE
8
BLACK
6
CONTINUOUS
10
142.576
20
-128.525
11
142.807
21
-127.719
0
LINE
8
BLACK
6
CONTINUOUS
10
142.807
20
-127.719
11
143.013
21
-127.318
0
LINE
8
BLACK
6
CONTINUOUS
10
143.013
20
-127.318
11
142.726
21
-127.269
0
LINE
8
BLACK
6
CONTINUOUS
10
142.726
20
-127.269
11
142.067
21
-126.988
0
LINE
8
BLACK
6
CONTINUOUS
10
142.067
20
-126.988
11
141.489
21
-126.564
0
LINE
8
BLACK
6
CONTINUOUS
10
141.489
20
-126.564
11
141.025
21
-126.017
0
LINE
8
BLACK
6
CONTINUOUS
10
141.025
20
-126.017
11
140.699
21
-125.379
0
LINE
8
BLACK
6
CONTINUOUS
10
140.699
20
-125.379
11
140.529
21
-124.683
0
LINE
8
BLACK
6
CONTINUOUS
10
140.529
20
-124.683
11
140.523
21
-123.966
0
LINE
8
BLACK
6
CONTINUOUS
10
140.523
20
-123.966
11
140.683
21
-123.267
0
LINE
8
BLACK
6
CONTINUOUS
10
140.683
20
-123.267
11
140.998
21
-122.623
0
LINE
8
BLACK
6
CONTINUOUS
10
140.998
20
-122.623
11
141.454
21
-122.07
0
LINE
8
BLACK
6
CONTINUOUS
10
141.454
20
-122.07
11
142.025
21
-121.636
0
LINE
8
BLACK
6
CONTINUOUS
10
142.025
20
-121.636
11
142.68
21
-121.345
0
LINE
8
BLACK
6
CONTINUOUS
10
142.68
20
-121.345
11
143.384
21
-121.213
0
LINE
8
BLACK
6
CONTINUOUS
10
143.384
20
-121.213
11
144.1
21
-121.246
0
LINE
8
BLACK
6
CONTINUOUS
10
144.1
20
-121.246
11
144.789
21
-121.443
0
LINE
8
BLACK
6
CONTINUOUS
10
144.789
20
-121.443
11
145.415
21
-121.793
0
LINE
8
BLACK
6
CONTINUOUS
10
145.415
20
-121.793
11
145.943
21
-122.278
0
LINE
8
BLACK
6
CONTINUOUS
10
145.943
20
-122.278
11
146.345
21
-122.871
0
LINE
8
BLACK
6
CONTINUOUS
10
146.345
20
-122.871
11
146.6
21
-123.541
0
LINE
8
BLACK
6
CONTINUOUS
10
146.6
20
-123.541
11
146.695
21
-124.251
0
LINE
8
BLACK
6
CONTINUOUS
10
146.695
20
-124.251
11
146.695
21
-124.3
0
LINE
8
BLACK
6
CONTINUOUS
10
146.695
20
-124.3
11
146.612
21
-125.012
0
LINE
8
BLACK
6
CONTINUOUS
10
146.612
20
-125.012
11
146.61
21
-125.018
0
LINE
8
BLACK
6
CONTINUOUS
10
146.61
20
-125.018
11
146.71
21
-125.006
0
LINE
8
BLACK
6
CONTINUOUS
10
146.71
20
-125.006
11
147.546
21
-125.07
0
LINE
8
BLACK
6
CONTINUOUS
10
147.546
20
-125.07
11
148.353
21
-125.296
0
LINE
8
BLACK
6
CONTINUOUS
10
148.353
20
-125.296
11
149.101
21
-125.674
0
LINE
8
BLACK
6
CONTINUOUS
10
149.101
20
-125.674
11
149.762
21
-126.19
0
LINE
8
BLACK
6
CONTINUOUS
10
149.762
20
-126.19
11
150.31
21
-126.824
0
LINE
8
BLACK
6
CONTINUOUS
10
150.31
20
-126.824
11
150.724
21
-127.553
0
LINE
8
BLACK
6
CONTINUOUS
10
150.724
20
-127.553
11
150.988
21
-128.348
0
LINE
8
BLACK
6
CONTINUOUS
10
150.988
20
-128.348
11
151.093
21
-129.18
0
LINE
8
BLACK
6
CONTINUOUS
10
151.093
20
-129.18
11
151.095
21
-129.3
0
LINE
8
BLACK
6
CONTINUOUS
10
151.095
20
-129.3
11
151.013
21
-130.134
0
LINE
8
BLACK
6
CONTINUOUS
10
151.013
20
-130.134
11
150.771
21
-130.937
0
LINE
8
BLACK
6
CONTINUOUS
10
146.008
20
-125.15
11
145.217
21
-125.383
0
LINE
8
BLACK
6
CONTINUOUS
10
145.217
20
-125.383
11
144.487
21
-125.765
0
LINE
8
BLACK
6
CONTINUOUS
10
144.487
20
-125.765
11
143.844
21
-126.281
0
LINE
8
BLACK
6
CONTINUOUS
10
143.844
20
-126.281
11
143.314
21
-126.913
0
LINE
8
BLACK
6
CONTINUOUS
10
143.314
20
-126.913
11
143.119
21
-127.267
0
LINE
8
BLACK
6
CONTINUOUS
10
143.119
20
-127.267
11
143.389
21
-127.318
0
LINE
8
BLACK
6
CONTINUOUS
10
143.389
20
-127.318
11
144.089
21
-127.285
0
LINE
8
BLACK
6
CONTINUOUS
10
144.089
20
-127.285
11
144.762
21
-127.093
0
LINE
8
BLACK
6
CONTINUOUS
10
144.762
20
-127.093
11
145.374
21
-126.75
0
LINE
8
BLACK
6
CONTINUOUS
10
145.374
20
-126.75
11
145.89
21
-126.277
0
LINE
8
BLACK
6
CONTINUOUS
10
145.89
20
-126.277
11
146.283
21
-125.697
0
LINE
8
BLACK
6
CONTINUOUS
10
146.283
20
-125.697
11
146.509
21
-125.104
0
LINE
8
BLACK
6
CONTINUOUS
10
146.509
20
-125.104
11
146.008
21
-125.15
0
LINE
8
BLACK
6
CONTINUOUS
10
150.706
20
-127.69
11
150.319
21
-126.962
0
LINE
8
BLACK
6
CONTINUOUS
10
150.319
20
-126.962
11
149.798
21
-126.323
0
LINE
8
BLACK
6
CONTINUOUS
10
149.798
20
-126.323
11
149.163
21
-125.797
0
LINE
8
BLACK
6
CONTINUOUS
10
149.163
20
-125.797
11
148.437
21
-125.405
0
LINE
8
BLACK
6
CONTINUOUS
10
148.437
20
-125.405
11
147.65
21
-125.161
0
LINE
8
BLACK
6
CONTINUOUS
10
147.65
20
-125.161
11
146.829
21
-125.075
0
LINE
8
BLACK
6
CONTINUOUS
10
146.829
20
-125.075
11
146.581
21
-125.098
0
LINE
8
BLACK
6
CONTINUOUS
10
146.581
20
-125.098
11
146.367
21
-125.686
0
LINE
8
BLACK
6
CONTINUOUS
10
146.367
20
-125.686
11
145.974
21
-126.285
0
LINE
8
BLACK
6
CONTINUOUS
10
145.974
20
-126.285
11
145.454
21
-126.778
0
LINE
8
BLACK
6
CONTINUOUS
10
145.454
20
-126.778
11
144.834
21
-127.138
0
LINE
8
BLACK
6
CONTINUOUS
10
144.834
20
-127.138
11
144.148
21
-127.346
0
LINE
8
BLACK
6
CONTINUOUS
10
144.148
20
-127.346
11
143.433
21
-127.39
0
LINE
8
BLACK
6
CONTINUOUS
10
143.433
20
-127.39
11
143.084
21
-127.331
0
LINE
8
BLACK
6
CONTINUOUS
10
143.084
20
-127.331
11
142.917
21
-127.636
0
LINE
8
BLACK
6
CONTINUOUS
10
142.917
20
-127.636
11
142.667
21
-128.422
0
LINE
8
BLACK
6
CONTINUOUS
10
142.667
20
-128.422
11
142.575
21
-129.241
0
LINE
8
BLACK
6
CONTINUOUS
10
142.575
20
-129.241
11
142.644
21
-130.063
0
LINE
8
BLACK
6
CONTINUOUS
10
142.644
20
-130.063
11
142.872
21
-130.855
0
LINE
8
BLACK
6
CONTINUOUS
10
142.872
20
-130.855
11
143.249
21
-131.589
0
LINE
8
BLACK
6
CONTINUOUS
10
143.249
20
-131.589
11
143.761
21
-132.235
0
LINE
8
BLACK
6
CONTINUOUS
10
143.761
20
-132.235
11
144.389
21
-132.769
0
LINE
8
BLACK
6
CONTINUOUS
10
144.389
20
-132.769
11
145.109
21
-133.172
0
LINE
8
BLACK
6
CONTINUOUS
10
145.109
20
-133.172
11
145.893
21
-133.426
0
LINE
8
BLACK
6
CONTINUOUS
10
145.893
20
-133.426
11
146.712
21
-133.524
0
LINE
8
BLACK
6
CONTINUOUS
10
146.712
20
-133.524
11
147.534
21
-133.461
0
LINE
8
BLACK
6
CONTINUOUS
10
147.534
20
-133.461
11
148.328
21
-133.239
0
LINE
8
BLACK
6
CONTINUOUS
10
148.328
20
-133.239
11
149.064
21
-132.867
0
LINE
8
BLACK
6
CONTINUOUS
10
149.064
20
-132.867
11
149.714
21
-132.36
0
LINE
8
BLACK
6
CONTINUOUS
10
149.714
20
-132.36
11
150.252
21
-131.735
0
LINE
8
BLACK
6
CONTINUOUS
10
150.252
20
-131.735
11
150.66
21
-131.018
0
LINE
8
BLACK
6
CONTINUOUS
10
150.66
20
-131.018
11
150.92
21
-130.236
0
LINE
8
BLACK
6
CONTINUOUS
10
150.92
20
-130.236
11
151.023
21
-129.418
0
LINE
8
BLACK
6
CONTINUOUS
10
151.023
20
-129.418
11
151.025
21
-129.3
0
LINE
8
BLACK
6
CONTINUOUS
10
151.025
20
-129.3
11
150.945
21
-128.479
0
LINE
8
BLACK
6
CONTINUOUS
10
150.945
20
-128.479
11
150.706
21
-127.69
0
LINE
8
BLACK
6
CONTINUOUS
10
146.305
20
-122.946
11
145.921
21
-122.36
0
LINE
8
BLACK
6
CONTINUOUS
10
145.921
20
-122.36
11
145.412
21
-121.878
0
LINE
8
BLACK
6
CONTINUOUS
10
145.412
20
-121.878
11
144.806
21
-121.526
0
LINE
8
BLACK
6
CONTINUOUS
10
144.806
20
-121.526
11
144.136
21
-121.323
0
LINE
8
BLACK
6
CONTINUOUS
10
144.136
20
-121.323
11
143.436
21
-121.279
0
LINE
8
BLACK
6
CONTINUOUS
10
143.436
20
-121.279
11
142.746
21
-121.398
0
LINE
8
BLACK
6
CONTINUOUS
10
142.746
20
-121.398
11
142.101
21
-121.672
0
LINE
8
BLACK
6
CONTINUOUS
10
142.101
20
-121.672
11
141.537
21
-122.088
0
LINE
8
BLACK
6
CONTINUOUS
10
141.537
20
-122.088
11
141.083
21
-122.622
0
LINE
8
BLACK
6
CONTINUOUS
10
141.083
20
-122.622
11
140.765
21
-123.246
0
LINE
8
BLACK
6
CONTINUOUS
10
140.765
20
-123.246
11
140.598
21
-123.926
0
LINE
8
BLACK
6
CONTINUOUS
10
140.598
20
-123.926
11
140.593
21
-124.627
0
LINE
8
BLACK
6
CONTINUOUS
10
140.593
20
-124.627
11
140.749
21
-125.31
0
LINE
8
BLACK
6
CONTINUOUS
10
140.749
20
-125.31
11
141.057
21
-125.939
0
LINE
8
BLACK
6
CONTINUOUS
10
141.057
20
-125.939
11
141.502
21
-126.48
0
LINE
8
BLACK
6
CONTINUOUS
10
141.502
20
-126.48
11
142.06
21
-126.904
0
LINE
8
BLACK
6
CONTINUOUS
10
142.06
20
-126.904
11
142.7
21
-127.188
0
LINE
8
BLACK
6
CONTINUOUS
10
142.7
20
-127.188
11
143.046
21
-127.253
0
LINE
8
BLACK
6
CONTINUOUS
10
143.046
20
-127.253
11
143.19
21
-126.973
0
LINE
8
BLACK
6
CONTINUOUS
10
143.19
20
-126.973
11
143.71
21
-126.316
0
LINE
8
BLACK
6
CONTINUOUS
10
143.71
20
-126.316
11
144.349
21
-125.773
0
LINE
8
BLACK
6
CONTINUOUS
10
144.349
20
-125.773
11
145.081
21
-125.364
0
LINE
8
BLACK
6
CONTINUOUS
10
145.081
20
-125.364
11
145.878
21
-125.105
0
LINE
8
BLACK
6
CONTINUOUS
10
145.878
20
-125.105
11
146.535
21
-125.027
0
LINE
8
BLACK
6
CONTINUOUS
10
146.535
20
-125.027
11
146.625
21
-124.348
0
LINE
8
BLACK
6
CONTINUOUS
10
146.625
20
-124.348
11
146.625
21
-124.3
0
LINE
8
BLACK
6
CONTINUOUS
10
146.625
20
-124.3
11
146.544
21
-123.604
0
LINE
8
BLACK
6
CONTINUOUS
10
146.544
20
-123.604
11
146.305
21
-122.946
0
LINE
8
BLACK
6
CONTINUOUS
10
139.852
20
-129.475
11
139.854
21
-129.475
0
LINE
8
BLACK
6
CONTINUOUS
10
139.854
20
-129.475
11
139.856
21
-129.476
0
LINE
8
BLACK
6
CONTINUOUS
10
139.856
20
-129.476
11
139.859
21
-129.476
0
LINE
8
BLACK
6
CONTINUOUS
10
139.859
20
-129.476
11
139.861
21
-129.477
0
LINE
8
BLACK
6
CONTINUOUS
10
139.861
20
-129.477
11
139.863
21
-129.478
0
LINE
8
BLACK
6
CONTINUOUS
10
139.863
20
-129.478
11
139.864
21
-129.479
0
LINE
8
BLACK
6
CONTINUOUS
10
139.864
20
-129.479
11
139.866
21
-129.481
0
LINE
8
BLACK
6
CONTINUOUS
10
139.866
20
-129.481
11
139.868
21
-129.482
0
LINE
8
BLACK
6
CONTINUOUS
10
139.868
20
-129.482
11
139.869
21
-129.484
0
LINE
8
BLACK
6
CONTINUOUS
10
139.869
20
-129.484
11
139.871
21
-129.486
0
LINE
8
BLACK
6
CONTINUOUS
10
139.871
20
-129.486
11
139.872
21
-129.487
0
LINE
8
BLACK
6
CONTINUOUS
10
139.872
20
-129.487
11
139.873
21
-129.489
0
LINE
8
BLACK
6
CONTINUOUS
10
139.873
20
-129.489
11
139.874
21
-129.491
0
LINE
8
BLACK
6
CONTINUOUS
10
139.874
20
-129.491
11
139.874
21
-129.494
0
LINE
8
BLACK
6
CONTINUOUS
10
139.874
20
-129.494
11
139.875
21
-129.496
0
LINE
8
BLACK
6
CONTINUOUS
10
139.875
20
-129.496
11
139.875
21
-129.498
0
LINE
8
BLACK
6
CONTINUOUS
10
139.875
20
-129.498
11
139.875
21
-129.498
0
LINE
8
BLACK
6
CONTINUOUS
10
139.875
20
-129.498
11
139.875
21
-133.102
0
LINE
8
BLACK
6
CONTINUOUS
10
139.875
20
-133.102
11
139.875
21
-133.102
0
LINE
8
BLACK
6
CONTINUOUS
10
139.875
20
-133.102
11
139.875
21
-133.104
0
LINE
8
BLACK
6
CONTINUOUS
10
139.875
20
-133.104
11
139.874
21
-133.106
0
LINE
8
BLACK
6
CONTINUOUS
10
139.874
20
-133.106
11
139.874
21
-133.109
0
LINE
8
BLACK
6
CONTINUOUS
10
139.874
20
-133.109
11
139.873
21
-133.111
0
LINE
8
BLACK
6
CONTINUOUS
10
139.873
20
-133.111
11
139.872
21
-133.113
0
LINE
8
BLACK
6
CONTINUOUS
10
139.872
20
-133.113
11
139.871
21
-133.114
0
LINE
8
BLACK
6
CONTINUOUS
10
139.871
20
-133.114
11
139.869
21
-133.116
0
LINE
8
BLACK
6
CONTINUOUS
10
139.869
20
-133.116
11
139.868
21
-133.118
0
LINE
8
BLACK
6
CONTINUOUS
10
139.868
20
-133.118
11
139.866
21
-133.119
0
LINE
8
BLACK
6
CONTINUOUS
10
139.866
20
-133.119
11
139.864
21
-133.121
0
LINE
8
BLACK
6
CONTINUOUS
10
139.864
20
-133.121
11
139.863
21
-133.122
0
LINE
8
BLACK
6
CONTINUOUS
10
139.863
20
-133.122
11
139.861
21
-133.123
0
LINE
8
BLACK
6
CONTINUOUS
10
139.861
20
-133.123
11
139.859
21
-133.124
0
LINE
8
BLACK
6
CONTINUOUS
10
139.859
20
-133.124
11
139.856
21
-133.124
0
LINE
8
BLACK
6
CONTINUOUS
10
139.856
20
-133.124
11
139.854
21
-133.125
0
LINE
8
BLACK
6
CONTINUOUS
10
139.854
20
-133.125
11
139.852
21
-133.125
0
LINE
8
BLACK
6
CONTINUOUS
10
139.852
20
-133.125
11
139.852
21
-133.125
0
LINE
8
BLACK
6
CONTINUOUS
10
139.852
20
-133.125
11
118.498
21
-133.125
0
LINE
8
BLACK
6
CONTINUOUS
10
118.498
20
-133.125
11
118.498
21
-133.125
0
LINE
8
BLACK
6
CONTINUOUS
10
118.498
20
-133.125
11
118.496
21
-133.125
0
LINE
8
BLACK
6
CONTINUOUS
10
118.496
20
-133.125
11
118.494
21
-133.124
0
LINE
8
BLACK
6
CONTINUOUS
10
118.494
20
-133.124
11
118.491
21
-133.124
0
LINE
8
BLACK
6
CONTINUOUS
10
118.491
20
-133.124
11
118.489
21
-133.123
0
LINE
8
BLACK
6
CONTINUOUS
10
118.489
20
-133.123
11
118.487
21
-133.122
0
LINE
8
BLACK
6
CONTINUOUS
10
118.487
20
-133.122
11
118.486
21
-133.121
0
LINE
8
BLACK
6
CONTINUOUS
10
118.486
20
-133.121
11
118.484
21
-133.119
0
LINE
8
BLACK
6
CONTINUOUS
10
118.484
20
-133.119
11
118.482
21
-133.118
0
LINE
8
BLACK
6
CONTINUOUS
10
118.482
20
-133.118
11
118.481
21
-133.116
0
LINE
8
BLACK
6
CONTINUOUS
10
118.481
20
-133.116
11
118.479
21
-133.114
0
LINE
8
BLACK
6
CONTINUOUS
10
118.479
20
-133.114
11
118.478
21
-133.113
0
LINE
8
BLACK
6
CONTINUOUS
10
118.478
20
-133.113
11
118.477
21
-133.111
0
LINE
8
BLACK
6
CONTINUOUS
10
118.477
20
-133.111
11
118.476
21
-133.109
0
LINE
8
BLACK
6
CONTINUOUS
10
118.476
20
-133.109
11
118.476
21
-133.106
0
LINE
8
BLACK
6
CONTINUOUS
10
118.476
20
-133.106
11
118.475
21
-133.104
0
LINE
8
BLACK
6
CONTINUOUS
10
118.475
20
-133.104
11
118.475
21
-133.096
0
LINE
8
BLACK
6
CONTINUOUS
10
118.475
20
-133.096
11
118.475
21
-129.498
0
LINE
8
BLACK
6
CONTINUOUS
10
118.475
20
-129.498
11
118.475
21
-129.498
0
LINE
8
BLACK
6
CONTINUOUS
10
118.475
20
-129.498
11
118.475
21
-129.496
0
LINE
8
BLACK
6
CONTINUOUS
10
118.475
20
-129.496
11
118.476
21
-129.494
0
LINE
8
BLACK
6
CONTINUOUS
10
118.476
20
-129.494
11
118.476
21
-129.491
0
LINE
8
BLACK
6
CONTINUOUS
10
118.476
20
-129.491
11
118.477
21
-129.489
0
LINE
8
BLACK
6
CONTINUOUS
10
118.477
20
-129.489
11
118.478
21
-129.487
0
LINE
8
BLACK
6
CONTINUOUS
10
118.478
20
-129.487
11
118.479
21
-129.486
0
LINE
8
BLACK
6
CONTINUOUS
10
118.479
20
-129.486
11
118.481
21
-129.484
0
LINE
8
BLACK
6
CONTINUOUS
10
118.481
20
-129.484
11
118.482
21
-129.482
0
LINE
8
BLACK
6
CONTINUOUS
10
118.482
20
-129.482
11
118.484
21
-129.481
0
LINE
8
BLACK
6
CONTINUOUS
10
118.484
20
-129.481
11
118.486
21
-129.479
0
LINE
8
BLACK
6
CONTINUOUS
10
118.486
20
-129.479
11
118.487
21
-129.478
0
LINE
8
BLACK
6
CONTINUOUS
10
118.487
20
-129.478
11
118.489
21
-129.477
0
LINE
8
BLACK
6
CONTINUOUS
10
118.489
20
-129.477
11
118.491
21
-129.476
0
LINE
8
BLACK
6
CONTINUOUS
10
118.491
20
-129.476
11
118.494
21
-129.476
0
LINE
8
BLACK
6
CONTINUOUS
10
118.494
20
-129.476
11
118.496
21
-129.475
0
LINE
8
BLACK
6
CONTINUOUS
10
118.496
20
-129.475
11
118.498
21
-129.475
0
LINE
8
BLACK
6
CONTINUOUS
10
118.498
20
-129.475
11
118.498
21
-129.475
0
LINE
8
BLACK
6
CONTINUOUS
10
118.498
20
-129.475
11
139.852
21
-129.475
0
LINE
8
BLACK
6
CONTINUOUS
10
139.852
20
-129.475
11
139.852
21
-129.475
0
LINE
8
BLACK
6
CONTINUOUS
10
118.525
20
-129.525
11
118.525
21
-133.075
0
LINE
8
BLACK
6
CONTINUOUS
10
118.525
20
-133.075
11
139.825
21
-133.075
0
LINE
8
BLACK
6
CONTINUOUS
10
139.825
20
-133.075
11
139.825
21
-129.525
0
LINE
8
BLACK
6
CONTINUOUS
10
139.825
20
-129.525
11
118.525
21
-129.525
0
LINE
8
BLACK
6
CONTINUOUS
10
157.678
20
-124.437
11
157.303
21
-124.9
0
LINE
8
BLACK
6
CONTINUOUS
10
157.303
20
-124.9
11
156.817
21
-125.245
0
LINE
8
BLACK
6
CONTINUOUS
10
156.817
20
-125.245
11
156.256
21
-125.447
0
LINE
8
BLACK
6
CONTINUOUS
10
156.256
20
-125.447
11
155.662
21
-125.491
0
LINE
8
BLACK
6
CONTINUOUS
10
155.662
20
-125.491
11
155.078
21
-125.373
0
LINE
8
BLACK
6
CONTINUOUS
10
155.078
20
-125.373
11
154.547
21
-125.102
0
LINE
8
BLACK
6
CONTINUOUS
10
154.547
20
-125.102
11
154.109
21
-124.699
0
LINE
8
BLACK
6
CONTINUOUS
10
154.109
20
-124.699
11
153.795
21
-124.193
0
LINE
8
BLACK
6
CONTINUOUS
10
153.795
20
-124.193
11
153.629
21
-123.621
0
LINE
8
BLACK
6
CONTINUOUS
10
153.629
20
-123.621
11
153.622
21
-123.025
0
LINE
8
BLACK
6
CONTINUOUS
10
153.622
20
-123.025
11
153.777
21
-122.449
0
LINE
8
BLACK
6
CONTINUOUS
10
153.777
20
-122.449
11
154.08
21
-121.937
0
LINE
8
BLACK
6
CONTINUOUS
10
154.08
20
-121.937
11
154.51
21
-121.524
0
LINE
8
BLACK
6
CONTINUOUS
10
154.51
20
-121.524
11
155.035
21
-121.243
0
LINE
8
BLACK
6
CONTINUOUS
10
155.035
20
-121.243
11
155.616
21
-121.113
0
LINE
8
BLACK
6
CONTINUOUS
10
155.616
20
-121.113
11
156.211
21
-121.144
0
LINE
8
BLACK
6
CONTINUOUS
10
156.211
20
-121.144
11
156.776
21
-121.334
0
LINE
8
BLACK
6
CONTINUOUS
10
156.776
20
-121.334
11
157.269
21
-121.669
0
LINE
8
BLACK
6
CONTINUOUS
10
157.269
20
-121.669
11
157.653
21
-122.124
0
LINE
8
BLACK
6
CONTINUOUS
10
157.653
20
-122.124
11
157.901
21
-122.666
0
LINE
8
BLACK
6
CONTINUOUS
10
157.901
20
-122.666
11
157.995
21
-123.254
0
LINE
8
BLACK
6
CONTINUOUS
10
157.995
20
-123.254
11
157.995
21
-123.3
0
LINE
8
BLACK
6
CONTINUOUS
10
157.995
20
-123.3
11
157.914
21
-123.89
0
LINE
8
BLACK
6
CONTINUOUS
10
157.914
20
-123.89
11
157.678
21
-124.437
0
LINE
8
BLACK
6
CONTINUOUS
10
157.618
20
-122.199
11
157.255
21
-121.751
0
LINE
8
BLACK
6
CONTINUOUS
10
157.255
20
-121.751
11
156.785
21
-121.417
0
LINE
8
BLACK
6
CONTINUOUS
10
156.785
20
-121.417
11
156.242
21
-121.221
0
LINE
8
BLACK
6
CONTINUOUS
10
156.242
20
-121.221
11
155.667
21
-121.179
0
LINE
8
BLACK
6
CONTINUOUS
10
155.667
20
-121.179
11
155.101
21
-121.293
0
LINE
8
BLACK
6
CONTINUOUS
10
155.101
20
-121.293
11
154.587
21
-121.555
0
LINE
8
BLACK
6
CONTINUOUS
10
154.587
20
-121.555
11
154.163
21
-121.945
0
LINE
8
BLACK
6
CONTINUOUS
10
154.163
20
-121.945
11
153.859
21
-122.436
0
LINE
8
BLACK
6
CONTINUOUS
10
153.859
20
-122.436
11
153.698
21
-122.99
0
LINE
8
BLACK
6
CONTINUOUS
10
153.698
20
-122.99
11
153.692
21
-123.566
0
LINE
8
BLACK
6
CONTINUOUS
10
153.692
20
-123.566
11
153.841
21
-124.123
0
LINE
8
BLACK
6
CONTINUOUS
10
153.841
20
-124.123
11
154.135
21
-124.62
0
LINE
8
BLACK
6
CONTINUOUS
10
154.135
20
-124.62
11
154.551
21
-125.019
0
LINE
8
BLACK
6
CONTINUOUS
10
154.551
20
-125.019
11
155.059
21
-125.292
0
LINE
8
BLACK
6
CONTINUOUS
10
155.059
20
-125.292
11
155.622
21
-125.418
0
LINE
8
BLACK
6
CONTINUOUS
10
155.622
20
-125.418
11
156.198
21
-125.387
0
LINE
8
BLACK
6
CONTINUOUS
10
156.198
20
-125.387
11
156.745
21
-125.203
0
LINE
8
BLACK
6
CONTINUOUS
10
156.745
20
-125.203
11
157.222
21
-124.879
0
LINE
8
BLACK
6
CONTINUOUS
10
157.222
20
-124.879
11
157.594
21
-124.439
0
LINE
8
BLACK
6
CONTINUOUS
10
157.594
20
-124.439
11
157.834
21
-123.914
0
LINE
8
BLACK
6
CONTINUOUS
10
157.834
20
-123.914
11
157.925
21
-123.345
0
LINE
8
BLACK
6
CONTINUOUS
10
157.925
20
-123.345
11
157.925
21
-123.3
0
LINE
8
BLACK
6
CONTINUOUS
10
157.925
20
-123.3
11
157.847
21
-122.729
0
LINE
8
BLACK
6
CONTINUOUS
10
157.847
20
-122.729
11
157.618
21
-122.199
0
LINE
8
BLACK
6
CONTINUOUS
10
104.478
20
-124.437
11
104.103
21
-124.9
0
LINE
8
BLACK
6
CONTINUOUS
10
104.103
20
-124.9
11
103.617
21
-125.245
0
LINE
8
BLACK
6
CONTINUOUS
10
103.617
20
-125.245
11
103.056
21
-125.447
0
LINE
8
BLACK
6
CONTINUOUS
10
103.056
20
-125.447
11
102.462
21
-125.491
0
LINE
8
BLACK
6
CONTINUOUS
10
102.462
20
-125.491
11
101.878
21
-125.373
0
LINE
8
BLACK
6
CONTINUOUS
10
101.878
20
-125.373
11
101.347
21
-125.102
0
LINE
8
BLACK
6
CONTINUOUS
10
101.347
20
-125.102
11
100.909
21
-124.699
0
LINE
8
BLACK
6
CONTINUOUS
10
100.909
20
-124.699
11
100.595
21
-124.193
0
LINE
8
BLACK
6
CONTINUOUS
10
100.595
20
-124.193
11
100.429
21
-123.621
0
LINE
8
BLACK
6
CONTINUOUS
10
100.429
20
-123.621
11
100.422
21
-123.025
0
LINE
8
BLACK
6
CONTINUOUS
10
100.422
20
-123.025
11
100.577
21
-122.449
0
LINE
8
BLACK
6
CONTINUOUS
10
100.577
20
-122.449
11
100.88
21
-121.937
0
LINE
8
BLACK
6
CONTINUOUS
10
100.88
20
-121.937
11
101.31
21
-121.524
0
LINE
8
BLACK
6
CONTINUOUS
10
101.31
20
-121.524
11
101.835
21
-121.243
0
LINE
8
BLACK
6
CONTINUOUS
10
101.835
20
-121.243
11
102.416
21
-121.113
0
LINE
8
BLACK
6
CONTINUOUS
10
102.416
20
-121.113
11
103.011
21
-121.144
0
LINE
8
BLACK
6
CONTINUOUS
10
103.011
20
-121.144
11
103.576
21
-121.334
0
LINE
8
BLACK
6
CONTINUOUS
10
103.576
20
-121.334
11
104.069
21
-121.669
0
LINE
8
BLACK
6
CONTINUOUS
10
104.069
20
-121.669
11
104.453
21
-122.124
0
LINE
8
BLACK
6
CONTINUOUS
10
104.453
20
-122.124
11
104.701
21
-122.666
0
LINE
8
BLACK
6
CONTINUOUS
10
104.701
20
-122.666
11
104.795
21
-123.254
0
LINE
8
BLACK
6
CONTINUOUS
10
104.795
20
-123.254
11
104.795
21
-123.3
0
LINE
8
BLACK
6
CONTINUOUS
10
104.795
20
-123.3
11
104.714
21
-123.89
0
LINE
8
BLACK
6
CONTINUOUS
10
104.714
20
-123.89
11
104.478
21
-124.437
0
LINE
8
BLACK
6
CONTINUOUS
10
104.418
20
-122.199
11
104.055
21
-121.751
0
LINE
8
BLACK
6
CONTINUOUS
10
104.055
20
-121.751
11
103.585
21
-121.417
0
LINE
8
BLACK
6
CONTINUOUS
10
103.585
20
-121.417
11
103.042
21
-121.221
0
LINE
8
BLACK
6
CONTINUOUS
10
103.042
20
-121.221
11
102.467
21
-121.179
0
LINE
8
BLACK
6
CONTINUOUS
10
102.467
20
-121.179
11
101.901
21
-121.293
0
LINE
8
BLACK
6
CONTINUOUS
10
101.901
20
-121.293
11
101.387
21
-121.555
0
LINE
8
BLACK
6
CONTINUOUS
10
101.387
20
-121.555
11
100.963
21
-121.945
0
LINE
8
BLACK
6
CONTINUOUS
10
100.963
20
-121.945
11
100.659
21
-122.436
0
LINE
8
BLACK
6
CONTINUOUS
10
100.659
20
-122.436
11
100.498
21
-122.99
0
LINE
8
BLACK
6
CONTINUOUS
10
100.498
20
-122.99
11
100.492
21
-123.566
0
LINE
8
BLACK
6
CONTINUOUS
10
100.492
20
-123.566
11
100.641
21
-124.123
0
LINE
8
BLACK
6
CONTINUOUS
10
100.641
20
-124.123
11
100.935
21
-124.62
0
LINE
8
BLACK
6
CONTINUOUS
10
100.935
20
-124.62
11
101.351
21
-125.019
0
LINE
8
BLACK
6
CONTINUOUS
10
101.351
20
-125.019
11
101.859
21
-125.292
0
LINE
8
BLACK
6
CONTINUOUS
10
101.859
20
-125.292
11
102.422
21
-125.418
0
LINE
8
BLACK
6
CONTINUOUS
10
102.422
20
-125.418
11
102.998
21
-125.387
0
LINE
8
BLACK
6
CONTINUOUS
10
102.998
20
-125.387
11
103.545
21
-125.203
0
LINE
8
BLACK
6
CONTINUOUS
10
103.545
20
-125.203
11
104.022
21
-124.879
0
LINE
8
BLACK
6
CONTINUOUS
10
104.022
20
-124.879
11
104.394
21
-124.439
0
LINE
8
BLACK
6
CONTINUOUS
10
104.394
20
-124.439
11
104.634
21
-123.914
0
LINE
8
BLACK
6
CONTINUOUS
10
104.634
20
-123.914
11
104.725
21
-123.345
0
LINE
8
BLACK
6
CONTINUOUS
10
104.725
20
-123.345
11
104.725
21
-123.3
0
LINE
8
BLACK
6
CONTINUOUS
10
104.725
20
-123.3
11
104.647
21
-122.729
0
LINE
8
BLACK
6
CONTINUOUS
10
104.647
20
-122.729
11
104.418
21
-122.199
0
LINE
8
BLACK
6
CONTINUOUS
10
102.402
20
-114.775
11
102.404
21
-114.775
0
LINE
8
BLACK
6
CONTINUOUS
10
102.404
20
-114.775
11
102.406
21
-114.776
0
LINE
8
BLACK
6
CONTINUOUS
10
102.406
20
-114.776
11
102.409
21
-114.776
0
LINE
8
BLACK
6
CONTINUOUS
10
102.409
20
-114.776
11
102.411
21
-114.777
0
LINE
8
BLACK
6
CONTINUOUS
10
102.411
20
-114.777
11
102.413
21
-114.778
0
LINE
8
BLACK
6
CONTINUOUS
10
102.413
20
-114.778
11
102.414
21
-114.779
0
LINE
8
BLACK
6
CONTINUOUS
10
102.414
20
-114.779
11
102.416
21
-114.781
0
LINE
8
BLACK
6
CONTINUOUS
10
102.416
20
-114.781
11
102.418
21
-114.782
0
LINE
8
BLACK
6
CONTINUOUS
10
102.418
20
-114.782
11
102.419
21
-114.784
0
LINE
8
BLACK
6
CONTINUOUS
10
102.419
20
-114.784
11
102.421
21
-114.786
0
LINE
8
BLACK
6
CONTINUOUS
10
102.421
20
-114.786
11
102.422
21
-114.787
0
LINE
8
BLACK
6
CONTINUOUS
10
102.422
20
-114.787
11
102.423
21
-114.789
0
LINE
8
BLACK
6
CONTINUOUS
10
102.423
20
-114.789
11
102.424
21
-114.791
0
LINE
8
BLACK
6
CONTINUOUS
10
102.424
20
-114.791
11
102.424
21
-114.794
0
LINE
8
BLACK
6
CONTINUOUS
10
102.424
20
-114.794
11
102.425
21
-114.796
0
LINE
8
BLACK
6
CONTINUOUS
10
102.425
20
-114.796
11
102.425
21
-114.798
0
LINE
8
BLACK
6
CONTINUOUS
10
102.425
20
-114.798
11
102.425
21
-114.798
0
LINE
8
BLACK
6
CONTINUOUS
10
102.425
20
-114.798
11
102.425
21
-116.025
0
LINE
8
BLACK
6
CONTINUOUS
10
102.425
20
-116.025
11
103.402
21
-116.025
0
LINE
8
BLACK
6
CONTINUOUS
10
103.402
20
-116.025
11
103.402
21
-116.025
0
LINE
8
BLACK
6
CONTINUOUS
10
103.402
20
-116.025
11
103.404
21
-116.025
0
LINE
8
BLACK
6
CONTINUOUS
10
103.404
20
-116.025
11
103.406
21
-116.026
0
LINE
8
BLACK
6
CONTINUOUS
10
103.406
20
-116.026
11
103.409
21
-116.026
0
LINE
8
BLACK
6
CONTINUOUS
10
103.409
20
-116.026
11
103.411
21
-116.027
0
LINE
8
BLACK
6
CONTINUOUS
10
103.411
20
-116.027
11
103.413
21
-116.028
0
LINE
8
BLACK
6
CONTINUOUS
10
103.413
20
-116.028
11
103.414
21
-116.029
0
LINE
8
BLACK
6
CONTINUOUS
10
103.414
20
-116.029
11
103.416
21
-116.031
0
LINE
8
BLACK
6
CONTINUOUS
10
103.416
20
-116.031
11
103.418
21
-116.032
0
LINE
8
BLACK
6
CONTINUOUS
10
103.418
20
-116.032
11
103.419
21
-116.034
0
LINE
8
BLACK
6
CONTINUOUS
10
103.419
20
-116.034
11
103.421
21
-116.036
0
LINE
8
BLACK
6
CONTINUOUS
10
103.421
20
-116.036
11
103.422
21
-116.037
0
LINE
8
BLACK
6
CONTINUOUS
10
103.422
20
-116.037
11
103.423
21
-116.039
0
LINE
8
BLACK
6
CONTINUOUS
10
103.423
20
-116.039
11
103.424
21
-116.041
0
LINE
8
BLACK
6
CONTINUOUS
10
103.424
20
-116.041
11
103.424
21
-116.044
0
LINE
8
BLACK
6
CONTINUOUS
10
103.424
20
-116.044
11
103.425
21
-116.046
0
LINE
8
BLACK
6
CONTINUOUS
10
103.425
20
-116.046
11
103.425
21
-116.048
0
LINE
8
BLACK
6
CONTINUOUS
10
103.425
20
-116.048
11
103.425
21
-116.048
0
LINE
8
BLACK
6
CONTINUOUS
10
103.425
20
-116.048
11
103.425
21
-119.962
0
LINE
8
BLACK
6
CONTINUOUS
10
103.425
20
-119.962
11
103.425
21
-119.962
0
LINE
8
BLACK
6
CONTINUOUS
10
103.425
20
-119.962
11
103.425
21
-119.964
0
LINE
8
BLACK
6
CONTINUOUS
10
103.425
20
-119.964
11
103.424
21
-119.966
0
LINE
8
BLACK
6
CONTINUOUS
10
103.424
20
-119.966
11
103.424
21
-119.969
0
LINE
8
BLACK
6
CONTINUOUS
10
103.424
20
-119.969
11
103.423
21
-119.971
0
LINE
8
BLACK
6
CONTINUOUS
10
103.423
20
-119.971
11
103.422
21
-119.973
0
LINE
8
BLACK
6
CONTINUOUS
10
103.422
20
-119.973
11
103.421
21
-119.974
0
LINE
8
BLACK
6
CONTINUOUS
10
103.421
20
-119.974
11
103.419
21
-119.976
0
LINE
8
BLACK
6
CONTINUOUS
10
103.419
20
-119.976
11
103.418
21
-119.978
0
LINE
8
BLACK
6
CONTINUOUS
10
103.418
20
-119.978
11
103.416
21
-119.979
0
LINE
8
BLACK
6
CONTINUOUS
10
103.416
20
-119.979
11
103.414
21
-119.981
0
LINE
8
BLACK
6
CONTINUOUS
10
103.414
20
-119.981
11
103.413
21
-119.982
0
LINE
8
BLACK
6
CONTINUOUS
10
103.413
20
-119.982
11
103.411
21
-119.983
0
LINE
8
BLACK
6
CONTINUOUS
10
103.411
20
-119.983
11
103.409
21
-119.984
0
LINE
8
BLACK
6
CONTINUOUS
10
103.409
20
-119.984
11
103.406
21
-119.984
0
LINE
8
BLACK
6
CONTINUOUS
10
103.406
20
-119.984
11
103.404
21
-119.985
0
LINE
8
BLACK
6
CONTINUOUS
10
103.404
20
-119.985
11
103.402
21
-119.985
0
LINE
8
BLACK
6
CONTINUOUS
10
103.402
20
-119.985
11
103.402
21
-119.985
0
LINE
8
BLACK
6
CONTINUOUS
10
103.402
20
-119.985
11
102.425
21
-119.985
0
LINE
8
BLACK
6
CONTINUOUS
10
102.425
20
-119.985
11
102.425
21
-120.952
0
LINE
8
BLACK
6
CONTINUOUS
10
102.425
20
-120.952
11
102.425
21
-120.952
0
LINE
8
BLACK
6
CONTINUOUS
10
102.425
20
-120.952
11
102.425
21
-120.954
0
LINE
8
BLACK
6
CONTINUOUS
10
102.425
20
-120.954
11
102.424
21
-120.956
0
LINE
8
BLACK
6
CONTINUOUS
10
102.424
20
-120.956
11
102.424
21
-120.959
0
LINE
8
BLACK
6
CONTINUOUS
10
102.424
20
-120.959
11
102.423
21
-120.961
0
LINE
8
BLACK
6
CONTINUOUS
10
102.423
20
-120.961
11
102.422
21
-120.963
0
LINE
8
BLACK
6
CONTINUOUS
10
102.422
20
-120.963
11
102.421
21
-120.964
0
LINE
8
BLACK
6
CONTINUOUS
10
102.421
20
-120.964
11
102.419
21
-120.966
0
LINE
8
BLACK
6
CONTINUOUS
10
102.419
20
-120.966
11
102.418
21
-120.968
0
LINE
8
BLACK
6
CONTINUOUS
10
102.418
20
-120.968
11
102.416
21
-120.969
0
LINE
8
BLACK
6
CONTINUOUS
10
102.416
20
-120.969
11
102.414
21
-120.971
0
LINE
8
BLACK
6
CONTINUOUS
10
102.414
20
-120.971
11
102.413
21
-120.972
0
LINE
8
BLACK
6
CONTINUOUS
10
102.413
20
-120.972
11
102.411
21
-120.973
0
LINE
8
BLACK
6
CONTINUOUS
10
102.411
20
-120.973
11
102.409
21
-120.974
0
LINE
8
BLACK
6
CONTINUOUS
10
102.409
20
-120.974
11
102.406
21
-120.974
0
LINE
8
BLACK
6
CONTINUOUS
10
102.406
20
-120.974
11
102.404
21
-120.975
0
LINE
8
BLACK
6
CONTINUOUS
10
102.404
20
-120.975
11
102.402
21
-120.975
0
LINE
8
BLACK
6
CONTINUOUS
10
102.402
20
-120.975
11
102.402
21
-120.975
0
LINE
8
BLACK
6
CONTINUOUS
10
102.402
20
-120.975
11
98.7978
21
-120.975
0
LINE
8
BLACK
6
CONTINUOUS
10
98.7978
20
-120.975
11
98.7978
21
-120.975
0
LINE
8
BLACK
6
CONTINUOUS
10
98.7978
20
-120.975
11
98.7956
21
-120.975
0
LINE
8
BLACK
6
CONTINUOUS
10
98.7956
20
-120.975
11
98.7935
21
-120.974
0
LINE
8
BLACK
6
CONTINUOUS
10
98.7935
20
-120.974
11
98.7913
21
-120.974
0
LINE
8
BLACK
6
CONTINUOUS
10
98.7913
20
-120.974
11
98.7894
21
-120.973
0
LINE
8
BLACK
6
CONTINUOUS
10
98.7894
20
-120.973
11
98.7873
21
-120.972
0
LINE
8
BLACK
6
CONTINUOUS
10
98.7873
20
-120.972
11
98.7856
21
-120.971
0
LINE
8
BLACK
6
CONTINUOUS
10
98.7856
20
-120.971
11
98.7837
21
-120.969
0
LINE
8
BLACK
6
CONTINUOUS
10
98.7837
20
-120.969
11
98.7823
21
-120.968
0
LINE
8
BLACK
6
CONTINUOUS
10
98.7823
20
-120.968
11
98.7806
21
-120.966
0
LINE
8
BLACK
6
CONTINUOUS
10
98.7806
20
-120.966
11
98.7794
21
-120.964
0
LINE
8
BLACK
6
CONTINUOUS
10
98.7794
20
-120.964
11
98.778
21
-120.963
0
LINE
8
BLACK
6
CONTINUOUS
10
98.778
20
-120.963
11
98.7773
21
-120.961
0
LINE
8
BLACK
6
CONTINUOUS
10
98.7773
20
-120.961
11
98.7761
21
-120.959
0
LINE
8
BLACK
6
CONTINUOUS
10
98.7761
20
-120.959
11
98.7758
21
-120.956
0
LINE
8
BLACK
6
CONTINUOUS
10
98.7758
20
-120.956
11
98.775
21
-120.954
0
LINE
8
BLACK
6
CONTINUOUS
10
98.775
20
-120.954
11
98.775
21
-120.946
0
LINE
8
BLACK
6
CONTINUOUS
10
98.775
20
-120.946
11
98.775
21
-114.798
0
LINE
8
BLACK
6
CONTINUOUS
10
98.775
20
-114.798
11
98.775
21
-114.798
0
LINE
8
BLACK
6
CONTINUOUS
10
98.775
20
-114.798
11
98.775
21
-114.796
0
LINE
8
BLACK
6
CONTINUOUS
10
98.775
20
-114.796
11
98.7758
21
-114.794
0
LINE
8
BLACK
6
CONTINUOUS
10
98.7758
20
-114.794
11
98.7761
21
-114.791
0
LINE
8
BLACK
6
CONTINUOUS
10
98.7761
20
-114.791
11
98.7773
21
-114.789
0
LINE
8
BLACK
6
CONTINUOUS
10
98.7773
20
-114.789
11
98.778
21
-114.787
0
LINE
8
BLACK
6
CONTINUOUS
10
98.778
20
-114.787
11
98.7794
21
-114.786
0
LINE
8
BLACK
6
CONTINUOUS
10
98.7794
20
-114.786
11
98.7806
21
-114.784
0
LINE
8
BLACK
6
CONTINUOUS
10
98.7806
20
-114.784
11
98.7823
21
-114.782
0
LINE
8
BLACK
6
CONTINUOUS
10
98.7823
20
-114.782
11
98.7837
21
-114.781
0
LINE
8
BLACK
6
CONTINUOUS
10
98.7837
20
-114.781
11
98.7856
21
-114.779
0
LINE
8
BLACK
6
CONTINUOUS
10
98.7856
20
-114.779
11
98.7873
21
-114.778
0
LINE
8
BLACK
6
CONTINUOUS
10
98.7873
20
-114.778
11
98.7894
21
-114.777
0
LINE
8
BLACK
6
CONTINUOUS
10
98.7894
20
-114.777
11
98.7913
21
-114.776
0
LINE
8
BLACK
6
CONTINUOUS
10
98.7913
20
-114.776
11
98.7935
21
-114.776
0
LINE
8
BLACK
6
CONTINUOUS
10
98.7935
20
-114.776
11
98.7956
21
-114.775
0
LINE
8
BLACK
6
CONTINUOUS
10
98.7956
20
-114.775
11
98.7978
21
-114.775
0
LINE
8
BLACK
6
CONTINUOUS
10
98.7978
20
-114.775
11
98.7978
21
-114.775
0
LINE
8
BLACK
6
CONTINUOUS
10
98.7978
20
-114.775
11
102.402
21
-114.775
0
LINE
8
BLACK
6
CONTINUOUS
10
102.402
20
-114.775
11
102.402
21
-114.775
0
LINE
8
BLACK
6
CONTINUOUS
10
98.825
20
-114.825
11
98.825
21
-120.925
0
LINE
8
BLACK
6
CONTINUOUS
10
98.825
20
-120.925
11
102.375
21
-120.925
0
LINE
8
BLACK
6
CONTINUOUS
10
102.375
20
-120.925
11
102.375
21
-119.985
0
LINE
8
BLACK
6
CONTINUOUS
10
102.375
20
-119.985
11
101.998
21
-119.985
0
LINE
8
BLACK
6
CONTINUOUS
10
101.998
20
-119.985
11
101.998
21
-119.985
0
LINE
8
BLACK
6
CONTINUOUS
10
101.998
20
-119.985
11
101.996
21
-119.985
0
LINE
8
BLACK
6
CONTINUOUS
10
101.996
20
-119.985
11
101.994
21
-119.984
0
LINE
8
BLACK
6
CONTINUOUS
10
101.994
20
-119.984
11
101.991
21
-119.984
0
LINE
8
BLACK
6
CONTINUOUS
10
101.991
20
-119.984
11
101.989
21
-119.983
0
LINE
8
BLACK
6
CONTINUOUS
10
101.989
20
-119.983
11
101.987
21
-119.982
0
LINE
8
BLACK
6
CONTINUOUS
10
101.987
20
-119.982
11
101.986
21
-119.981
0
LINE
8
BLACK
6
CONTINUOUS
10
101.986
20
-119.981
11
101.984
21
-119.979
0
LINE
8
BLACK
6
CONTINUOUS
10
101.984
20
-119.979
11
101.982
21
-119.978
0
LINE
8
BLACK
6
CONTINUOUS
10
101.982
20
-119.978
11
101.981
21
-119.976
0
LINE
8
BLACK
6
CONTINUOUS
10
101.981
20
-119.976
11
101.979
21
-119.974
0
LINE
8
BLACK
6
CONTINUOUS
10
101.979
20
-119.974
11
101.978
21
-119.973
0
LINE
8
BLACK
6
CONTINUOUS
10
101.978
20
-119.973
11
101.977
21
-119.971
0
LINE
8
BLACK
6
CONTINUOUS
10
101.977
20
-119.971
11
101.976
21
-119.969
0
LINE
8
BLACK
6
CONTINUOUS
10
101.976
20
-119.969
11
101.976
21
-119.966
0
LINE
8
BLACK
6
CONTINUOUS
10
101.976
20
-119.966
11
101.975
21
-119.964
0
LINE
8
BLACK
6
CONTINUOUS
10
101.975
20
-119.964
11
101.975
21
-119.962
0
LINE
8
BLACK
6
CONTINUOUS
10
101.975
20
-119.962
11
101.975
21
-119.962
0
LINE
8
BLACK
6
CONTINUOUS
10
101.975
20
-119.962
11
101.975
21
-116.048
0
LINE
8
BLACK
6
CONTINUOUS
10
101.975
20
-116.048
11
101.975
21
-116.046
0
LINE
8
BLACK
6
CONTINUOUS
10
101.975
20
-116.046
11
101.976
21
-116.043
0
LINE
8
BLACK
6
CONTINUOUS
10
101.976
20
-116.043
11
101.976
21
-116.041
0
LINE
8
BLACK
6
CONTINUOUS
10
101.976
20
-116.041
11
101.977
21
-116.039
0
LINE
8
BLACK
6
CONTINUOUS
10
101.977
20
-116.039
11
101.978
21
-116.037
0
LINE
8
BLACK
6
CONTINUOUS
10
101.978
20
-116.037
11
101.979
21
-116.036
0
LINE
8
BLACK
6
CONTINUOUS
10
101.979
20
-116.036
11
101.981
21
-116.034
0
LINE
8
BLACK
6
CONTINUOUS
10
101.981
20
-116.034
11
101.982
21
-116.032
0
LINE
8
BLACK
6
CONTINUOUS
10
101.982
20
-116.032
11
101.984
21
-116.031
0
LINE
8
BLACK
6
CONTINUOUS
10
101.984
20
-116.031
11
101.986
21
-116.029
0
LINE
8
BLACK
6
CONTINUOUS
10
101.986
20
-116.029
11
101.987
21
-116.028
0
LINE
8
BLACK
6
CONTINUOUS
10
101.987
20
-116.028
11
101.989
21
-116.027
0
LINE
8
BLACK
6
CONTINUOUS
10
101.989
20
-116.027
11
101.991
21
-116.026
0
LINE
8
BLACK
6
CONTINUOUS
10
101.991
20
-116.026
11
101.994
21
-116.026
0
LINE
8
BLACK
6
CONTINUOUS
10
101.994
20
-116.026
11
101.996
21
-116.025
0
LINE
8
BLACK
6
CONTINUOUS
10
101.996
20
-116.025
11
101.998
21
-116.025
0
LINE
8
BLACK
6
CONTINUOUS
10
101.998
20
-116.025
11
101.998
21
-116.025
0
LINE
8
BLACK
6
CONTINUOUS
10
101.998
20
-116.025
11
102.375
21
-116.025
0
LINE
8
BLACK
6
CONTINUOUS
10
102.375
20
-116.025
11
102.375
21
-114.825
0
LINE
8
BLACK
6
CONTINUOUS
10
102.375
20
-114.825
11
98.825
21
-114.825
0
LINE
8
BLACK
6
CONTINUOUS
10
102.025
20
-116.075
11
102.025
21
-119.935
0
LINE
8
BLACK
6
CONTINUOUS
10
102.025
20
-119.935
11
102.375
21
-119.935
0
LINE
8
BLACK
6
CONTINUOUS
10
102.375
20
-119.935
11
102.375
21
-116.075
0
LINE
8
BLACK
6
CONTINUOUS
10
102.375
20
-116.075
11
102.025
21
-116.075
0
LINE
8
BLACK
6
CONTINUOUS
10
102.425
20
-116.075
11
102.425
21
-119.935
0
LINE
8
BLACK
6
CONTINUOUS
10
102.425
20
-119.935
11
103.375
21
-119.935
0
LINE
8
BLACK
6
CONTINUOUS
10
103.375
20
-119.935
11
103.375
21
-116.075
0
LINE
8
BLACK
6
CONTINUOUS
10
103.375
20
-116.075
11
102.425
21
-116.075
0
LINE
8
BLACK
6
CONTINUOUS
10
110.702
20
-114.775
11
110.704
21
-114.775
0
LINE
8
BLACK
6
CONTINUOUS
10
110.704
20
-114.775
11
110.706
21
-114.776
0
LINE
8
BLACK
6
CONTINUOUS
10
110.706
20
-114.776
11
110.709
21
-114.776
0
LINE
8
BLACK
6
CONTINUOUS
10
110.709
20
-114.776
11
110.711
21
-114.777
0
LINE
8
BLACK
6
CONTINUOUS
10
110.711
20
-114.777
11
110.713
21
-114.778
0
LINE
8
BLACK
6
CONTINUOUS
10
110.713
20
-114.778
11
110.714
21
-114.779
0
LINE
8
BLACK
6
CONTINUOUS
10
110.714
20
-114.779
11
110.716
21
-114.781
0
LINE
8
BLACK
6
CONTINUOUS
10
110.716
20
-114.781
11
110.718
21
-114.782
0
LINE
8
BLACK
6
CONTINUOUS
10
110.718
20
-114.782
11
110.719
21
-114.784
0
LINE
8
BLACK
6
CONTINUOUS
10
110.719
20
-114.784
11
110.721
21
-114.786
0
LINE
8
BLACK
6
CONTINUOUS
10
110.721
20
-114.786
11
110.722
21
-114.787
0
LINE
8
BLACK
6
CONTINUOUS
10
110.722
20
-114.787
11
110.723
21
-114.789
0
LINE
8
BLACK
6
CONTINUOUS
10
110.723
20
-114.789
11
110.724
21
-114.791
0
LINE
8
BLACK
6
CONTINUOUS
10
110.724
20
-114.791
11
110.724
21
-114.794
0
LINE
8
BLACK
6
CONTINUOUS
10
110.724
20
-114.794
11
110.725
21
-114.796
0
LINE
8
BLACK
6
CONTINUOUS
10
110.725
20
-114.796
11
110.725
21
-114.798
0
LINE
8
BLACK
6
CONTINUOUS
10
110.725
20
-114.798
11
110.725
21
-114.798
0
LINE
8
BLACK
6
CONTINUOUS
10
110.725
20
-114.798
11
110.725
21
-116.025
0
LINE
8
BLACK
6
CONTINUOUS
10
110.725
20
-116.025
11
112.002
21
-116.025
0
LINE
8
BLACK
6
CONTINUOUS
10
112.002
20
-116.025
11
112.002
21
-116.025
0
LINE
8
BLACK
6
CONTINUOUS
10
112.002
20
-116.025
11
112.004
21
-116.025
0
LINE
8
BLACK
6
CONTINUOUS
10
112.004
20
-116.025
11
112.006
21
-116.026
0
LINE
8
BLACK
6
CONTINUOUS
10
112.006
20
-116.026
11
112.009
21
-116.026
0
LINE
8
BLACK
6
CONTINUOUS
10
112.009
20
-116.026
11
112.011
21
-116.027
0
LINE
8
BLACK
6
CONTINUOUS
10
112.011
20
-116.027
11
112.013
21
-116.028
0
LINE
8
BLACK
6
CONTINUOUS
10
112.013
20
-116.028
11
112.014
21
-116.029
0
LINE
8
BLACK
6
CONTINUOUS
10
112.014
20
-116.029
11
112.016
21
-116.031
0
LINE
8
BLACK
6
CONTINUOUS
10
112.016
20
-116.031
11
112.018
21
-116.032
0
LINE
8
BLACK
6
CONTINUOUS
10
112.018
20
-116.032
11
112.019
21
-116.034
0
LINE
8
BLACK
6
CONTINUOUS
10
112.019
20
-116.034
11
112.021
21
-116.036
0
LINE
8
BLACK
6
CONTINUOUS
10
112.021
20
-116.036
11
112.022
21
-116.037
0
LINE
8
BLACK
6
CONTINUOUS
10
112.022
20
-116.037
11
112.023
21
-116.039
0
LINE
8
BLACK
6
CONTINUOUS
10
112.023
20
-116.039
11
112.024
21
-116.041
0
LINE
8
BLACK
6
CONTINUOUS
10
112.024
20
-116.041
11
112.024
21
-116.044
0
LINE
8
BLACK
6
CONTINUOUS
10
112.024
20
-116.044
11
112.025
21
-116.046
0
LINE
8
BLACK
6
CONTINUOUS
10
112.025
20
-116.046
11
112.025
21
-116.048
0
LINE
8
BLACK
6
CONTINUOUS
10
112.025
20
-116.048
11
112.025
21
-116.048
0
LINE
8
BLACK
6
CONTINUOUS
10
112.025
20
-116.048
11
112.025
21
-119.962
0
LINE
8
BLACK
6
CONTINUOUS
10
112.025
20
-119.962
11
112.025
21
-119.962
0
LINE
8
BLACK
6
CONTINUOUS
10
112.025
20
-119.962
11
112.025
21
-119.964
0
LINE
8
BLACK
6
CONTINUOUS
10
112.025
20
-119.964
11
112.024
21
-119.966
0
LINE
8
BLACK
6
CONTINUOUS
10
112.024
20
-119.966
11
112.024
21
-119.969
0
LINE
8
BLACK
6
CONTINUOUS
10
112.024
20
-119.969
11
112.023
21
-119.971
0
LINE
8
BLACK
6
CONTINUOUS
10
112.023
20
-119.971
11
112.022
21
-119.973
0
LINE
8
BLACK
6
CONTINUOUS
10
112.022
20
-119.973
11
112.021
21
-119.974
0
LINE
8
BLACK
6
CONTINUOUS
10
112.021
20
-119.974
11
112.019
21
-119.976
0
LINE
8
BLACK
6
CONTINUOUS
10
112.019
20
-119.976
11
112.018
21
-119.978
0
LINE
8
BLACK
6
CONTINUOUS
10
112.018
20
-119.978
11
112.016
21
-119.979
0
LINE
8
BLACK
6
CONTINUOUS
10
112.016
20
-119.979
11
112.014
21
-119.981
0
LINE
8
BLACK
6
CONTINUOUS
10
112.014
20
-119.981
11
112.013
21
-119.982
0
LINE
8
BLACK
6
CONTINUOUS
10
112.013
20
-119.982
11
112.011
21
-119.983
0
LINE
8
BLACK
6
CONTINUOUS
10
112.011
20
-119.983
11
112.009
21
-119.984
0
LINE
8
BLACK
6
CONTINUOUS
10
112.009
20
-119.984
11
112.006
21
-119.984
0
LINE
8
BLACK
6
CONTINUOUS
10
112.006
20
-119.984
11
112.004
21
-119.985
0
LINE
8
BLACK
6
CONTINUOUS
10
112.004
20
-119.985
11
112.002
21
-119.985
0
LINE
8
BLACK
6
CONTINUOUS
10
112.002
20
-119.985
11
112.002
21
-119.985
0
LINE
8
BLACK
6
CONTINUOUS
10
112.002
20
-119.985
11
110.725
21
-119.985
0
LINE
8
BLACK
6
CONTINUOUS
10
110.725
20
-119.985
11
110.725
21
-120.952
0
LINE
8
BLACK
6
CONTINUOUS
10
110.725
20
-120.952
11
110.725
21
-120.952
0
LINE
8
BLACK
6
CONTINUOUS
10
110.725
20
-120.952
11
110.725
21
-120.954
0
LINE
8
BLACK
6
CONTINUOUS
10
110.725
20
-120.954
11
110.724
21
-120.956
0
LINE
8
BLACK
6
CONTINUOUS
10
110.724
20
-120.956
11
110.724
21
-120.959
0
LINE
8
BLACK
6
CONTINUOUS
10
110.724
20
-120.959
11
110.723
21
-120.961
0
LINE
8
BLACK
6
CONTINUOUS
10
110.723
20
-120.961
11
110.722
21
-120.963
0
LINE
8
BLACK
6
CONTINUOUS
10
110.722
20
-120.963
11
110.721
21
-120.964
0
LINE
8
BLACK
6
CONTINUOUS
10
110.721
20
-120.964
11
110.719
21
-120.966
0
LINE
8
BLACK
6
CONTINUOUS
10
110.719
20
-120.966
11
110.718
21
-120.968
0
LINE
8
BLACK
6
CONTINUOUS
10
110.718
20
-120.968
11
110.716
21
-120.969
0
LINE
8
BLACK
6
CONTINUOUS
10
110.716
20
-120.969
11
110.714
21
-120.971
0
LINE
8
BLACK
6
CONTINUOUS
10
110.714
20
-120.971
11
110.713
21
-120.972
0
LINE
8
BLACK
6
CONTINUOUS
10
110.713
20
-120.972
11
110.711
21
-120.973
0
LINE
8
BLACK
6
CONTINUOUS
10
110.711
20
-120.973
11
110.709
21
-120.974
0
LINE
8
BLACK
6
CONTINUOUS
10
110.709
20
-120.974
11
110.706
21
-120.974
0
LINE
8
BLACK
6
CONTINUOUS
10
110.706
20
-120.974
11
110.704
21
-120.975
0
LINE
8
BLACK
6
CONTINUOUS
10
110.704
20
-120.975
11
110.702
21
-120.975
0
LINE
8
BLACK
6
CONTINUOUS
10
110.702
20
-120.975
11
110.702
21
-120.975
0
LINE
8
BLACK
6
CONTINUOUS
10
110.702
20
-120.975
11
107.098
21
-120.975
0
LINE
8
BLACK
6
CONTINUOUS
10
107.098
20
-120.975
11
107.098
21
-120.975
0
LINE
8
BLACK
6
CONTINUOUS
10
107.098
20
-120.975
11
107.096
21
-120.975
0
LINE
8
BLACK
6
CONTINUOUS
10
107.096
20
-120.975
11
107.094
21
-120.974
0
LINE
8
BLACK
6
CONTINUOUS
10
107.094
20
-120.974
11
107.091
21
-120.974
0
LINE
8
BLACK
6
CONTINUOUS
10
107.091
20
-120.974
11
107.089
21
-120.973
0
LINE
8
BLACK
6
CONTINUOUS
10
107.089
20
-120.973
11
107.087
21
-120.972
0
LINE
8
BLACK
6
CONTINUOUS
10
107.087
20
-120.972
11
107.086
21
-120.971
0
LINE
8
BLACK
6
CONTINUOUS
10
107.086
20
-120.971
11
107.084
21
-120.969
0
LINE
8
BLACK
6
CONTINUOUS
10
107.084
20
-120.969
11
107.082
21
-120.968
0
LINE
8
BLACK
6
CONTINUOUS
10
107.082
20
-120.968
11
107.081
21
-120.966
0
LINE
8
BLACK
6
CONTINUOUS
10
107.081
20
-120.966
11
107.079
21
-120.964
0
LINE
8
BLACK
6
CONTINUOUS
10
107.079
20
-120.964
11
107.078
21
-120.963
0
LINE
8
BLACK
6
CONTINUOUS
10
107.078
20
-120.963
11
107.077
21
-120.961
0
LINE
8
BLACK
6
CONTINUOUS
10
107.077
20
-120.961
11
107.076
21
-120.959
0
LINE
8
BLACK
6
CONTINUOUS
10
107.076
20
-120.959
11
107.076
21
-120.956
0
LINE
8
BLACK
6
CONTINUOUS
10
107.076
20
-120.956
11
107.075
21
-120.954
0
LINE
8
BLACK
6
CONTINUOUS
10
107.075
20
-120.954
11
107.075
21
-120.946
0
LINE
8
BLACK
6
CONTINUOUS
10
107.075
20
-120.946
11
107.075
21
-114.798
0
LINE
8
BLACK
6
CONTINUOUS
10
107.075
20
-114.798
11
107.075
21
-114.798
0
LINE
8
BLACK
6
CONTINUOUS
10
107.075
20
-114.798
11
107.075
21
-114.796
0
LINE
8
BLACK
6
CONTINUOUS
10
107.075
20
-114.796
11
107.076
21
-114.794
0
LINE
8
BLACK
6
CONTINUOUS
10
107.076
20
-114.794
11
107.076
21
-114.791
0
LINE
8
BLACK
6
CONTINUOUS
10
107.076
20
-114.791
11
107.077
21
-114.789
0
LINE
8
BLACK
6
CONTINUOUS
10
107.077
20
-114.789
11
107.078
21
-114.787
0
LINE
8
BLACK
6
CONTINUOUS
10
107.078
20
-114.787
11
107.079
21
-114.786
0
LINE
8
BLACK
6
CONTINUOUS
10
107.079
20
-114.786
11
107.081
21
-114.784
0
LINE
8
BLACK
6
CONTINUOUS
10
107.081
20
-114.784
11
107.082
21
-114.782
0
LINE
8
BLACK
6
CONTINUOUS
10
107.082
20
-114.782
11
107.084
21
-114.781
0
LINE
8
BLACK
6
CONTINUOUS
10
107.084
20
-114.781
11
107.086
21
-114.779
0
LINE
8
BLACK
6
CONTINUOUS
10
107.086
20
-114.779
11
107.087
21
-114.778
0
LINE
8
BLACK
6
CONTINUOUS
10
107.087
20
-114.778
11
107.089
21
-114.777
0
LINE
8
BLACK
6
CONTINUOUS
10
107.089
20
-114.777
11
107.091
21
-114.776
0
LINE
8
BLACK
6
CONTINUOUS
10
107.091
20
-114.776
11
107.094
21
-114.776
0
LINE
8
BLACK
6
CONTINUOUS
10
107.094
20
-114.776
11
107.096
21
-114.775
0
LINE
8
BLACK
6
CONTINUOUS
10
107.096
20
-114.775
11
107.098
21
-114.775
0
LINE
8
BLACK
6
CONTINUOUS
10
107.098
20
-114.775
11
107.098
21
-114.775
0
LINE
8
BLACK
6
CONTINUOUS
10
107.098
20
-114.775
11
110.702
21
-114.775
0
LINE
8
BLACK
6
CONTINUOUS
10
110.702
20
-114.775
11
110.702
21
-114.775
0
LINE
8
BLACK
6
CONTINUOUS
10
107.125
20
-114.825
11
107.125
21
-120.925
0
LINE
8
BLACK
6
CONTINUOUS
10
107.125
20
-120.925
11
110.675
21
-120.925
0
LINE
8
BLACK
6
CONTINUOUS
10
110.675
20
-120.925
11
110.675
21
-119.985
0
LINE
8
BLACK
6
CONTINUOUS
10
110.675
20
-119.985
11
110.598
21
-119.985
0
LINE
8
BLACK
6
CONTINUOUS
10
110.598
20
-119.985
11
110.598
21
-119.985
0
LINE
8
BLACK
6
CONTINUOUS
10
110.598
20
-119.985
11
110.596
21
-119.985
0
LINE
8
BLACK
6
CONTINUOUS
10
110.596
20
-119.985
11
110.594
21
-119.984
0
LINE
8
BLACK
6
CONTINUOUS
10
110.594
20
-119.984
11
110.591
21
-119.984
0
LINE
8
BLACK
6
CONTINUOUS
10
110.591
20
-119.984
11
110.589
21
-119.983
0
LINE
8
BLACK
6
CONTINUOUS
10
110.589
20
-119.983
11
110.587
21
-119.982
0
LINE
8
BLACK
6
CONTINUOUS
10
110.587
20
-119.982
11
110.586
21
-119.981
0
LINE
8
BLACK
6
CONTINUOUS
10
110.586
20
-119.981
11
110.584
21
-119.979
0
LINE
8
BLACK
6
CONTINUOUS
10
110.584
20
-119.979
11
110.582
21
-119.978
0
LINE
8
BLACK
6
CONTINUOUS
10
110.582
20
-119.978
11
110.581
21
-119.976
0
LINE
8
BLACK
6
CONTINUOUS
10
110.581
20
-119.976
11
110.579
21
-119.974
0
LINE
8
BLACK
6
CONTINUOUS
10
110.579
20
-119.974
11
110.578
21
-119.973
0
LINE
8
BLACK
6
CONTINUOUS
10
110.578
20
-119.973
11
110.577
21
-119.971
0
LINE
8
BLACK
6
CONTINUOUS
10
110.577
20
-119.971
11
110.576
21
-119.969
0
LINE
8
BLACK
6
CONTINUOUS
10
110.576
20
-119.969
11
110.576
21
-119.966
0
LINE
8
BLACK
6
CONTINUOUS
10
110.576
20
-119.966
11
110.575
21
-119.964
0
LINE
8
BLACK
6
CONTINUOUS
10
110.575
20
-119.964
11
110.575
21
-119.962
0
LINE
8
BLACK
6
CONTINUOUS
10
110.575
20
-119.962
11
110.575
21
-119.962
0
LINE
8
BLACK
6
CONTINUOUS
10
110.575
20
-119.962
11
110.575
21
-116.048
0
LINE
8
BLACK
6
CONTINUOUS
10
110.575
20
-116.048
11
110.575
21
-116.046
0
LINE
8
BLACK
6
CONTINUOUS
10
110.575
20
-116.046
11
110.576
21
-116.043
0
LINE
8
BLACK
6
CONTINUOUS
10
110.576
20
-116.043
11
110.576
21
-116.041
0
LINE
8
BLACK
6
CONTINUOUS
10
110.576
20
-116.041
11
110.577
21
-116.039
0
LINE
8
BLACK
6
CONTINUOUS
10
110.577
20
-116.039
11
110.578
21
-116.037
0
LINE
8
BLACK
6
CONTINUOUS
10
110.578
20
-116.037
11
110.579
21
-116.036
0
LINE
8
BLACK
6
CONTINUOUS
10
110.579
20
-116.036
11
110.581
21
-116.034
0
LINE
8
BLACK
6
CONTINUOUS
10
110.581
20
-116.034
11
110.582
21
-116.032
0
LINE
8
BLACK
6
CONTINUOUS
10
110.582
20
-116.032
11
110.584
21
-116.031
0
LINE
8
BLACK
6
CONTINUOUS
10
110.584
20
-116.031
11
110.586
21
-116.029
0
LINE
8
BLACK
6
CONTINUOUS
10
110.586
20
-116.029
11
110.587
21
-116.028
0
LINE
8
BLACK
6
CONTINUOUS
10
110.587
20
-116.028
11
110.589
21
-116.027
0
LINE
8
BLACK
6
CONTINUOUS
10
110.589
20
-116.027
11
110.591
21
-116.026
0
LINE
8
BLACK
6
CONTINUOUS
10
110.591
20
-116.026
11
110.594
21
-116.026
0
LINE
8
BLACK
6
CONTINUOUS
10
110.594
20
-116.026
11
110.596
21
-116.025
0
LINE
8
BLACK
6
CONTINUOUS
10
110.596
20
-116.025
11
110.598
21
-116.025
0
LINE
8
BLACK
6
CONTINUOUS
10
110.598
20
-116.025
11
110.598
21
-116.025
0
LINE
8
BLACK
6
CONTINUOUS
10
110.598
20
-116.025
11
110.675
21
-116.025
0
LINE
8
BLACK
6
CONTINUOUS
10
110.675
20
-116.025
11
110.675
21
-114.825
0
LINE
8
BLACK
6
CONTINUOUS
10
110.675
20
-114.825
11
107.125
21
-114.825
0
LINE
8
BLACK
6
CONTINUOUS
10
110.625
20
-116.075
11
110.625
21
-119.935
0
LINE
8
BLACK
6
CONTINUOUS
10
110.625
20
-119.935
11
110.675
21
-119.935
0
LINE
8
BLACK
6
CONTINUOUS
10
110.675
20
-119.935
11
110.675
21
-116.075
0
LINE
8
BLACK
6
CONTINUOUS
10
110.675
20
-116.075
11
110.625
21
-116.075
0
LINE
8
BLACK
6
CONTINUOUS
10
110.725
20
-116.075
11
110.725
21
-119.935
0
LINE
8
BLACK
6
CONTINUOUS
10
110.725
20
-119.935
11
111.975
21
-119.935
0
LINE
8
BLACK
6
CONTINUOUS
10
111.975
20
-119.935
11
111.975
21
-116.075
0
LINE
8
BLACK
6
CONTINUOUS
10
111.975
20
-116.075
11
110.725
21
-116.075
0
LINE
8
BLACK
6
CONTINUOUS
10
99.9522
20
-101.775
11
99.9544
21
-101.775
0
LINE
8
BLACK
6
CONTINUOUS
10
99.9544
20
-101.775
11
99.9565
21
-101.776
0
LINE
8
BLACK
6
CONTINUOUS
10
99.9565
20
-101.776
11
99.9587
21
-101.776
0
LINE
8
BLACK
6
CONTINUOUS
10
99.9587
20
-101.776
11
99.9606
21
-101.777
0
LINE
8
BLACK
6
CONTINUOUS
10
99.9606
20
-101.777
11
99.9627
21
-101.778
0
LINE
8
BLACK
6
CONTINUOUS
10
99.9627
20
-101.778
11
99.9644
21
-101.779
0
LINE
8
BLACK
6
CONTINUOUS
10
99.9644
20
-101.779
11
99.9663
21
-101.781
0
LINE
8
BLACK
6
CONTINUOUS
10
99.9663
20
-101.781
11
99.9677
21
-101.782
0
LINE
8
BLACK
6
CONTINUOUS
10
99.9677
20
-101.782
11
99.9694
21
-101.784
0
LINE
8
BLACK
6
CONTINUOUS
10
99.9694
20
-101.784
11
99.9706
21
-101.786
0
LINE
8
BLACK
6
CONTINUOUS
10
99.9706
20
-101.786
11
99.972
21
-101.787
0
LINE
8
BLACK
6
CONTINUOUS
10
99.972
20
-101.787
11
99.9727
21
-101.789
0
LINE
8
BLACK
6
CONTINUOUS
10
99.9727
20
-101.789
11
99.9739
21
-101.791
0
LINE
8
BLACK
6
CONTINUOUS
10
99.9739
20
-101.791
11
99.9742
21
-101.794
0
LINE
8
BLACK
6
CONTINUOUS
10
99.9742
20
-101.794
11
99.975
21
-101.796
0
LINE
8
BLACK
6
CONTINUOUS
10
99.975
20
-101.796
11
99.975
21
-101.798
0
LINE
8
BLACK
6
CONTINUOUS
10
99.975
20
-101.798
11
99.975
21
-101.798
0
LINE
8
BLACK
6
CONTINUOUS
10
99.975
20
-101.798
11
99.975
21
-105.402
0
LINE
8
BLACK
6
CONTINUOUS
10
99.975
20
-105.402
11
99.975
21
-105.402
0
LINE
8
BLACK
6
CONTINUOUS
10
99.975
20
-105.402
11
99.975
21
-105.404
0
LINE
8
BLACK
6
CONTINUOUS
10
99.975
20
-105.404
11
99.9742
21
-105.406
0
LINE
8
BLACK
6
CONTINUOUS
10
99.9742
20
-105.406
11
99.9739
21
-105.409
0
LINE
8
BLACK
6
CONTINUOUS
10
99.9739
20
-105.409
11
99.9727
21
-105.411
0
LINE
8
BLACK
6
CONTINUOUS
10
99.9727
20
-105.411
11
99.972
21
-105.413
0
LINE
8
BLACK
6
CONTINUOUS
10
99.972
20
-105.413
11
99.9706
21
-105.414
0
LINE
8
BLACK
6
CONTINUOUS
10
99.9706
20
-105.414
11
99.9694
21
-105.416
0
LINE
8
BLACK
6
CONTINUOUS
10
99.9694
20
-105.416
11
99.9677
21
-105.418
0
LINE
8
BLACK
6
CONTINUOUS
10
99.9677
20
-105.418
11
99.9663
21
-105.419
0
LINE
8
BLACK
6
CONTINUOUS
10
99.9663
20
-105.419
11
99.9644
21
-105.421
0
LINE
8
BLACK
6
CONTINUOUS
10
99.9644
20
-105.421
11
99.9627
21
-105.422
0
LINE
8
BLACK
6
CONTINUOUS
10
99.9627
20
-105.422
11
99.9606
21
-105.423
0
LINE
8
BLACK
6
CONTINUOUS
10
99.9606
20
-105.423
11
99.9587
21
-105.424
0
LINE
8
BLACK
6
CONTINUOUS
10
99.9587
20
-105.424
11
99.9565
21
-105.424
0
LINE
8
BLACK
6
CONTINUOUS
10
99.9565
20
-105.424
11
99.9544
21
-105.425
0
LINE
8
BLACK
6
CONTINUOUS
10
99.9544
20
-105.425
11
99.9522
21
-105.425
0
LINE
8
BLACK
6
CONTINUOUS
10
99.9522
20
-105.425
11
99.9522
21
-105.425
0
LINE
8
BLACK
6
CONTINUOUS
10
99.9522
20
-105.425
11
98.6478
21
-105.425
0
LINE
8
BLACK
6
CONTINUOUS
10
98.6478
20
-105.425
11
98.6478
21
-105.425
0
LINE
8
BLACK
6
CONTINUOUS
10
98.6478
20
-105.425
11
98.6456
21
-105.425
0
LINE
8
BLACK
6
CONTINUOUS
10
98.6456
20
-105.425
11
98.6435
21
-105.424
0
LINE
8
BLACK
6
CONTINUOUS
10
98.6435
20
-105.424
11
98.6413
21
-105.424
0
LINE
8
BLACK
6
CONTINUOUS
10
98.6413
20
-105.424
11
98.6394
21
-105.423
0
LINE
8
BLACK
6
CONTINUOUS
10
98.6394
20
-105.423
11
98.6373
21
-105.422
0
LINE
8
BLACK
6
CONTINUOUS
10
98.6373
20
-105.422
11
98.6356
21
-105.421
0
LINE
8
BLACK
6
CONTINUOUS
10
98.6356
20
-105.421
11
98.6337
21
-105.419
0
LINE
8
BLACK
6
CONTINUOUS
10
98.6337
20
-105.419
11
98.6323
21
-105.418
0
LINE
8
BLACK
6
CONTINUOUS
10
98.6323
20
-105.418
11
98.6306
21
-105.416
0
LINE
8
BLACK
6
CONTINUOUS
10
98.6306
20
-105.416
11
98.6294
21
-105.414
0
LINE
8
BLACK
6
CONTINUOUS
10
98.6294
20
-105.414
11
98.628
21
-105.413
0
LINE
8
BLACK
6
CONTINUOUS
10
98.628
20
-105.413
11
98.6273
21
-105.411
0
LINE
8
BLACK
6
CONTINUOUS
10
98.6273
20
-105.411
11
98.6261
21
-105.409
0
LINE
8
BLACK
6
CONTINUOUS
10
98.6261
20
-105.409
11
98.6258
21
-105.406
0
LINE
8
BLACK
6
CONTINUOUS
10
98.6258
20
-105.406
11
98.625
21
-105.404
0
LINE
8
BLACK
6
CONTINUOUS
10
98.625
20
-105.404
11
98.625
21
-105.402
0
LINE
8
BLACK
6
CONTINUOUS
10
98.625
20
-105.402
11
98.625
21
-105.402
0
LINE
8
BLACK
6
CONTINUOUS
10
98.625
20
-105.402
11
98.625
21
-101.798
0
LINE
8
BLACK
6
CONTINUOUS
10
98.625
20
-101.798
11
98.625
21
-101.796
0
LINE
8
BLACK
6
CONTINUOUS
10
98.625
20
-101.796
11
98.6258
21
-101.793
0
LINE
8
BLACK
6
CONTINUOUS
10
98.6258
20
-101.793
11
98.6261
21
-101.791
0
LINE
8
BLACK
6
CONTINUOUS
10
98.6261
20
-101.791
11
98.6273
21
-101.789
0
LINE
8
BLACK
6
CONTINUOUS
10
98.6273
20
-101.789
11
98.628
21
-101.787
0
LINE
8
BLACK
6
CONTINUOUS
10
98.628
20
-101.787
11
98.6294
21
-101.786
0
LINE
8
BLACK
6
CONTINUOUS
10
98.6294
20
-101.786
11
98.6306
21
-101.784
0
LINE
8
BLACK
6
CONTINUOUS
10
98.6306
20
-101.784
11
98.6323
21
-101.782
0
LINE
8
BLACK
6
CONTINUOUS
10
98.6323
20
-101.782
11
98.6337
21
-101.781
0
LINE
8
BLACK
6
CONTINUOUS
10
98.6337
20
-101.781
11
98.6356
21
-101.779
0
LINE
8
BLACK
6
CONTINUOUS
10
98.6356
20
-101.779
11
98.6373
21
-101.778
0
LINE
8
BLACK
6
CONTINUOUS
10
98.6373
20
-101.778
11
98.6394
21
-101.777
0
LINE
8
BLACK
6
CONTINUOUS
10
98.6394
20
-101.777
11
98.6413
21
-101.776
0
LINE
8
BLACK
6
CONTINUOUS
10
98.6413
20
-101.776
11
98.6435
21
-101.776
0
LINE
8
BLACK
6
CONTINUOUS
10
98.6435
20
-101.776
11
98.6456
21
-101.775
0
LINE
8
BLACK
6
CONTINUOUS
10
98.6456
20
-101.775
11
98.6478
21
-101.775
0
LINE
8
BLACK
6
CONTINUOUS
10
98.6478
20
-101.775
11
98.6478
21
-101.775
0
LINE
8
BLACK
6
CONTINUOUS
10
98.6478
20
-101.775
11
99.9522
21
-101.775
0
LINE
8
BLACK
6
CONTINUOUS
10
99.9522
20
-101.775
11
99.9522
21
-101.775
0
LINE
8
BLACK
6
CONTINUOUS
10
98.675
20
-101.825
11
98.675
21
-105.375
0
LINE
8
BLACK
6
CONTINUOUS
10
98.675
20
-105.375
11
99.925
21
-105.375
0
LINE
8
BLACK
6
CONTINUOUS
10
99.925
20
-105.375
11
99.925
21
-101.825
0
LINE
8
BLACK
6
CONTINUOUS
10
99.925
20
-101.825
11
98.675
21
-101.825
0
LINE
8
BLACK
6
CONTINUOUS
10
157.678
20
-103.937
11
157.303
21
-104.4
0
LINE
8
BLACK
6
CONTINUOUS
10
157.303
20
-104.4
11
156.817
21
-104.745
0
LINE
8
BLACK
6
CONTINUOUS
10
156.817
20
-104.745
11
156.256
21
-104.947
0
LINE
8
BLACK
6
CONTINUOUS
10
156.256
20
-104.947
11
155.662
21
-104.991
0
LINE
8
BLACK
6
CONTINUOUS
10
155.662
20
-104.991
11
155.078
21
-104.873
0
LINE
8
BLACK
6
CONTINUOUS
10
155.078
20
-104.873
11
154.547
21
-104.602
0
LINE
8
BLACK
6
CONTINUOUS
10
154.547
20
-104.602
11
154.109
21
-104.199
0
LINE
8
BLACK
6
CONTINUOUS
10
154.109
20
-104.199
11
153.795
21
-103.693
0
LINE
8
BLACK
6
CONTINUOUS
10
153.795
20
-103.693
11
153.629
21
-103.121
0
LINE
8
BLACK
6
CONTINUOUS
10
153.629
20
-103.121
11
153.622
21
-102.525
0
LINE
8
BLACK
6
CONTINUOUS
10
153.622
20
-102.525
11
153.777
21
-101.949
0
LINE
8
BLACK
6
CONTINUOUS
10
153.777
20
-101.949
11
154.08
21
-101.437
0
LINE
8
BLACK
6
CONTINUOUS
10
154.08
20
-101.437
11
154.51
21
-101.024
0
LINE
8
BLACK
6
CONTINUOUS
10
154.51
20
-101.024
11
155.035
21
-100.743
0
LINE
8
BLACK
6
CONTINUOUS
10
155.035
20
-100.743
11
155.616
21
-100.613
0
LINE
8
BLACK
6
CONTINUOUS
10
155.616
20
-100.613
11
156.211
21
-100.644
0
LINE
8
BLACK
6
CONTINUOUS
10
156.211
20
-100.644
11
156.776
21
-100.834
0
LINE
8
BLACK
6
CONTINUOUS
10
156.776
20
-100.834
11
157.269
21
-101.169
0
LINE
8
BLACK
6
CONTINUOUS
10
157.269
20
-101.169
11
157.653
21
-101.624
0
LINE
8
BLACK
6
CONTINUOUS
10
157.653
20
-101.624
11
157.901
21
-102.166
0
LINE
8
BLACK
6
CONTINUOUS
10
157.901
20
-102.166
11
157.995
21
-102.754
0
LINE
8
BLACK
6
CONTINUOUS
10
157.995
20
-102.754
11
157.995
21
-102.8
0
LINE
8
BLACK
6
CONTINUOUS
10
157.995
20
-102.8
11
157.914
21
-103.39
0
LINE
8
BLACK
6
CONTINUOUS
10
157.914
20
-103.39
11
157.678
21
-103.937
0
LINE
8
BLACK
6
CONTINUOUS
10
157.618
20
-101.699
11
157.255
21
-101.251
0
LINE
8
BLACK
6
CONTINUOUS
10
157.255
20
-101.251
11
156.785
21
-100.917
0
LINE
8
BLACK
6
CONTINUOUS
10
156.785
20
-100.917
11
156.242
21
-100.721
0
LINE
8
BLACK
6
CONTINUOUS
10
156.242
20
-100.721
11
155.667
21
-100.679
0
LINE
8
BLACK
6
CONTINUOUS
10
155.667
20
-100.679
11
155.101
21
-100.793
0
LINE
8
BLACK
6
CONTINUOUS
10
155.101
20
-100.793
11
154.587
21
-101.055
0
LINE
8
BLACK
6
CONTINUOUS
10
154.587
20
-101.055
11
154.163
21
-101.445
0
LINE
8
BLACK
6
CONTINUOUS
10
154.163
20
-101.445
11
153.859
21
-101.936
0
LINE
8
BLACK
6
CONTINUOUS
10
153.859
20
-101.936
11
153.698
21
-102.49
0
LINE
8
BLACK
6
CONTINUOUS
10
153.698
20
-102.49
11
153.692
21
-103.066
0
LINE
8
BLACK
6
CONTINUOUS
10
153.692
20
-103.066
11
153.841
21
-103.623
0
LINE
8
BLACK
6
CONTINUOUS
10
153.841
20
-103.623
11
154.135
21
-104.12
0
LINE
8
BLACK
6
CONTINUOUS
10
154.135
20
-104.12
11
154.551
21
-104.519
0
LINE
8
BLACK
6
CONTINUOUS
10
154.551
20
-104.519
11
155.059
21
-104.792
0
LINE
8
BLACK
6
CONTINUOUS
10
155.059
20
-104.792
11
155.622
21
-104.918
0
LINE
8
BLACK
6
CONTINUOUS
10
155.622
20
-104.918
11
156.198
21
-104.887
0
LINE
8
BLACK
6
CONTINUOUS
10
156.198
20
-104.887
11
156.745
21
-104.703
0
LINE
8
BLACK
6
CONTINUOUS
10
156.745
20
-104.703
11
157.222
21
-104.379
0
LINE
8
BLACK
6
CONTINUOUS
10
157.222
20
-104.379
11
157.594
21
-103.939
0
LINE
8
BLACK
6
CONTINUOUS
10
157.594
20
-103.939
11
157.834
21
-103.414
0
LINE
8
BLACK
6
CONTINUOUS
10
157.834
20
-103.414
11
157.925
21
-102.845
0
LINE
8
BLACK
6
CONTINUOUS
10
157.925
20
-102.845
11
157.925
21
-102.8
0
LINE
8
BLACK
6
CONTINUOUS
10
157.925
20
-102.8
11
157.847
21
-102.229
0
LINE
8
BLACK
6
CONTINUOUS
10
157.847
20
-102.229
11
157.618
21
-101.699
0
LINE
8
BLACK
6
CONTINUOUS
10
117.467
20
-103.186
11
117.074
21
-103.785
0
LINE
8
BLACK
6
CONTINUOUS
10
117.074
20
-103.785
11
116.554
21
-104.278
0
LINE
8
BLACK
6
CONTINUOUS
10
116.554
20
-104.278
11
115.934
21
-104.638
0
LINE
8
BLACK
6
CONTINUOUS
10
115.934
20
-104.638
11
115.248
21
-104.846
0
LINE
8
BLACK
6
CONTINUOUS
10
115.248
20
-104.846
11
114.533
21
-104.89
0
LINE
8
BLACK
6
CONTINUOUS
10
114.533
20
-104.89
11
113.826
21
-104.769
0
LINE
8
BLACK
6
CONTINUOUS
10
113.826
20
-104.769
11
113.167
21
-104.488
0
LINE
8
BLACK
6
CONTINUOUS
10
113.167
20
-104.488
11
112.589
21
-104.064
0
LINE
8
BLACK
6
CONTINUOUS
10
112.589
20
-104.064
11
112.125
21
-103.517
0
LINE
8
BLACK
6
CONTINUOUS
10
112.125
20
-103.517
11
111.799
21
-102.879
0
LINE
8
BLACK
6
CONTINUOUS
10
111.799
20
-102.879
11
111.629
21
-102.183
0
LINE
8
BLACK
6
CONTINUOUS
10
111.629
20
-102.183
11
111.623
21
-101.466
0
LINE
8
BLACK
6
CONTINUOUS
10
111.623
20
-101.466
11
111.71
21
-101.087
0
LINE
8
BLACK
6
CONTINUOUS
10
111.71
20
-101.087
11
111.63
21
-101.095
0
LINE
8
BLACK
6
CONTINUOUS
10
111.63
20
-101.095
11
110.795
21
-101.019
0
LINE
8
BLACK
6
CONTINUOUS
10
110.795
20
-101.019
11
109.991
21
-100.782
0
LINE
8
BLACK
6
CONTINUOUS
10
109.991
20
-100.782
11
109.248
21
-100.394
0
LINE
8
BLACK
6
CONTINUOUS
10
109.248
20
-100.394
11
108.725
21
-99.9732
0
LINE
8
BLACK
6
CONTINUOUS
10
108.725
20
-99.9732
11
108.725
21
-101.102
0
LINE
8
BLACK
6
CONTINUOUS
10
108.725
20
-101.102
11
108.725
21
-101.102
0
LINE
8
BLACK
6
CONTINUOUS
10
108.725
20
-101.102
11
108.725
21
-101.104
0
LINE
8
BLACK
6
CONTINUOUS
10
108.725
20
-101.104
11
108.724
21
-101.106
0
LINE
8
BLACK
6
CONTINUOUS
10
108.724
20
-101.106
11
108.724
21
-101.109
0
LINE
8
BLACK
6
CONTINUOUS
10
108.724
20
-101.109
11
108.723
21
-101.111
0
LINE
8
BLACK
6
CONTINUOUS
10
108.723
20
-101.111
11
108.722
21
-101.113
0
LINE
8
BLACK
6
CONTINUOUS
10
108.722
20
-101.113
11
108.721
21
-101.114
0
LINE
8
BLACK
6
CONTINUOUS
10
108.721
20
-101.114
11
108.719
21
-101.116
0
LINE
8
BLACK
6
CONTINUOUS
10
108.719
20
-101.116
11
108.718
21
-101.118
0
LINE
8
BLACK
6
CONTINUOUS
10
108.718
20
-101.118
11
108.716
21
-101.119
0
LINE
8
BLACK
6
CONTINUOUS
10
108.716
20
-101.119
11
108.714
21
-101.121
0
LINE
8
BLACK
6
CONTINUOUS
10
108.714
20
-101.121
11
108.713
21
-101.122
0
LINE
8
BLACK
6
CONTINUOUS
10
108.713
20
-101.122
11
108.711
21
-101.123
0
LINE
8
BLACK
6
CONTINUOUS
10
108.711
20
-101.123
11
108.709
21
-101.124
0
LINE
8
BLACK
6
CONTINUOUS
10
108.709
20
-101.124
11
108.706
21
-101.124
0
LINE
8
BLACK
6
CONTINUOUS
10
108.706
20
-101.124
11
108.704
21
-101.125
0
LINE
8
BLACK
6
CONTINUOUS
10
108.704
20
-101.125
11
108.702
21
-101.125
0
LINE
8
BLACK
6
CONTINUOUS
10
108.702
20
-101.125
11
108.702
21
-101.125
0
LINE
8
BLACK
6
CONTINUOUS
10
108.702
20
-101.125
11
98.0978
21
-101.125
0
LINE
8
BLACK
6
CONTINUOUS
10
98.0978
20
-101.125
11
98.0978
21
-101.125
0
LINE
8
BLACK
6
CONTINUOUS
10
98.0978
20
-101.125
11
98.0956
21
-101.125
0
LINE
8
BLACK
6
CONTINUOUS
10
98.0956
20
-101.125
11
98.0935
21
-101.124
0
LINE
8
BLACK
6
CONTINUOUS
10
98.0935
20
-101.124
11
98.0913
21
-101.124
0
LINE
8
BLACK
6
CONTINUOUS
10
98.0913
20
-101.124
11
98.0894
21
-101.123
0
LINE
8
BLACK
6
CONTINUOUS
10
98.0894
20
-101.123
11
98.0873
21
-101.122
0
LINE
8
BLACK
6
CONTINUOUS
10
98.0873
20
-101.122
11
98.0856
21
-101.121
0
LINE
8
BLACK
6
CONTINUOUS
10
98.0856
20
-101.121
11
98.0837
21
-101.119
0
LINE
8
BLACK
6
CONTINUOUS
10
98.0837
20
-101.119
11
98.0823
21
-101.118
0
LINE
8
BLACK
6
CONTINUOUS
10
98.0823
20
-101.118
11
98.0806
21
-101.116
0
LINE
8
BLACK
6
CONTINUOUS
10
98.0806
20
-101.116
11
98.0794
21
-101.114
0
LINE
8
BLACK
6
CONTINUOUS
10
98.0794
20
-101.114
11
98.078
21
-101.113
0
LINE
8
BLACK
6
CONTINUOUS
10
98.078
20
-101.113
11
98.0773
21
-101.111
0
LINE
8
BLACK
6
CONTINUOUS
10
98.0773
20
-101.111
11
98.0761
21
-101.109
0
LINE
8
BLACK
6
CONTINUOUS
10
98.0761
20
-101.109
11
98.0758
21
-101.106
0
LINE
8
BLACK
6
CONTINUOUS
10
98.0758
20
-101.106
11
98.075
21
-101.104
0
LINE
8
BLACK
6
CONTINUOUS
10
98.075
20
-101.104
11
98.075
21
-101.102
0
LINE
8
BLACK
6
CONTINUOUS
10
98.075
20
-101.102
11
98.075
21
-101.102
0
LINE
8
BLACK
6
CONTINUOUS
10
98.075
20
-101.102
11
98.075
21
-90.4978
0
LINE
8
BLACK
6
CONTINUOUS
10
98.075
20
-90.4978
11
98.075
21
-90.4956
0
LINE
8
BLACK
6
CONTINUOUS
10
98.075
20
-90.4956
11
98.0758
21
-90.4935
0
LINE
8
BLACK
6
CONTINUOUS
10
98.0758
20
-90.4935
11
98.0761
21
-90.4913
0
LINE
8
BLACK
6
CONTINUOUS
10
98.0761
20
-90.4913
11
98.0773
21
-90.4894
0
LINE
8
BLACK
6
CONTINUOUS
10
98.0773
20
-90.4894
11
98.078
21
-90.4873
0
LINE
8
BLACK
6
CONTINUOUS
10
98.078
20
-90.4873
11
98.0794
21
-90.4856
0
LINE
8
BLACK
6
CONTINUOUS
10
98.0794
20
-90.4856
11
98.0806
21
-90.4837
0
LINE
8
BLACK
6
CONTINUOUS
10
98.0806
20
-90.4837
11
98.0823
21
-90.4823
0
LINE
8
BLACK
6
CONTINUOUS
10
98.0823
20
-90.4823
11
98.0837
21
-90.4806
0
LINE
8
BLACK
6
CONTINUOUS
10
98.0837
20
-90.4806
11
98.0856
21
-90.4794
0
LINE
8
BLACK
6
CONTINUOUS
10
98.0856
20
-90.4794
11
98.0873
21
-90.478
0
LINE
8
BLACK
6
CONTINUOUS
10
98.0873
20
-90.478
11
98.0894
21
-90.4773
0
LINE
8
BLACK
6
CONTINUOUS
10
98.0894
20
-90.4773
11
98.0913
21
-90.4761
0
LINE
8
BLACK
6
CONTINUOUS
10
98.0913
20
-90.4761
11
98.0935
21
-90.4758
0
LINE
8
BLACK
6
CONTINUOUS
10
98.0935
20
-90.4758
11
98.0956
21
-90.475
0
LINE
8
BLACK
6
CONTINUOUS
10
98.0956
20
-90.475
11
98.0978
21
-90.475
0
LINE
8
BLACK
6
CONTINUOUS
10
98.0978
20
-90.475
11
98.0978
21
-90.475
0
LINE
8
BLACK
6
CONTINUOUS
10
98.0978
20
-90.475
11
108.702
21
-90.475
0
LINE
8
BLACK
6
CONTINUOUS
10
108.702
20
-90.475
11
108.702
21
-90.475
0
LINE
8
BLACK
6
CONTINUOUS
10
108.702
20
-90.475
11
108.704
21
-90.475
0
LINE
8
BLACK
6
CONTINUOUS
10
108.704
20
-90.475
11
108.706
21
-90.4758
0
LINE
8
BLACK
6
CONTINUOUS
10
108.706
20
-90.4758
11
108.709
21
-90.4761
0
LINE
8
BLACK
6
CONTINUOUS
10
108.709
20
-90.4761
11
108.711
21
-90.4773
0
LINE
8
BLACK
6
CONTINUOUS
10
108.711
20
-90.4773
11
108.713
21
-90.478
0
LINE
8
BLACK
6
CONTINUOUS
10
108.713
20
-90.478
11
108.714
21
-90.4794
0
LINE
8
BLACK
6
CONTINUOUS
10
108.714
20
-90.4794
11
108.716
21
-90.4806
0
LINE
8
BLACK
6
CONTINUOUS
10
108.716
20
-90.4806
11
108.718
21
-90.4823
0
LINE
8
BLACK
6
CONTINUOUS
10
108.718
20
-90.4823
11
108.719
21
-90.4837
0
LINE
8
BLACK
6
CONTINUOUS
10
108.719
20
-90.4837
11
108.721
21
-90.4856
0
LINE
8
BLACK
6
CONTINUOUS
10
108.721
20
-90.4856
11
108.722
21
-90.4873
0
LINE
8
BLACK
6
CONTINUOUS
10
108.722
20
-90.4873
11
108.723
21
-90.4894
0
LINE
8
BLACK
6
CONTINUOUS
10
108.723
20
-90.4894
11
108.724
21
-90.4913
0
LINE
8
BLACK
6
CONTINUOUS
10
108.724
20
-90.4913
11
108.724
21
-90.4935
0
LINE
8
BLACK
6
CONTINUOUS
10
108.724
20
-90.4935
11
108.725
21
-90.4956
0
LINE
8
BLACK
6
CONTINUOUS
10
108.725
20
-90.4956
11
108.725
21
-90.4978
0
LINE
8
BLACK
6
CONTINUOUS
10
108.725
20
-90.4978
11
108.725
21
-90.4978
0
LINE
8
BLACK
6
CONTINUOUS
10
108.725
20
-90.4978
11
108.725
21
-93.6338
0
LINE
8
BLACK
6
CONTINUOUS
10
108.725
20
-93.6338
11
109.149
21
-93.2732
0
LINE
8
BLACK
6
CONTINUOUS
10
109.149
20
-93.2732
11
109.881
21
-92.8642
0
LINE
8
BLACK
6
CONTINUOUS
10
109.881
20
-92.8642
11
110.678
21
-92.6052
0
LINE
8
BLACK
6
CONTINUOUS
10
110.678
20
-92.6052
11
111.51
21
-92.5059
0
LINE
8
BLACK
6
CONTINUOUS
10
111.51
20
-92.5059
11
112.346
21
-92.5703
0
LINE
8
BLACK
6
CONTINUOUS
10
112.346
20
-92.5703
11
113.153
21
-92.7957
0
LINE
8
BLACK
6
CONTINUOUS
10
113.153
20
-92.7957
11
113.901
21
-93.1736
0
LINE
8
BLACK
6
CONTINUOUS
10
113.901
20
-93.1736
11
114.562
21
-93.6897
0
LINE
8
BLACK
6
CONTINUOUS
10
114.562
20
-93.6897
11
115.11
21
-94.3242
0
LINE
8
BLACK
6
CONTINUOUS
10
115.11
20
-94.3242
11
115.524
21
-95.0531
0
LINE
8
BLACK
6
CONTINUOUS
10
115.524
20
-95.0531
11
115.525
21
-95.057
0
LINE
8
BLACK
6
CONTINUOUS
10
115.525
20
-95.057
11
115.525
21
-92.6978
0
LINE
8
BLACK
6
CONTINUOUS
10
115.525
20
-92.6978
11
115.525
21
-92.6956
0
LINE
8
BLACK
6
CONTINUOUS
10
115.525
20
-92.6956
11
115.526
21
-92.6935
0
LINE
8
BLACK
6
CONTINUOUS
10
115.526
20
-92.6935
11
115.526
21
-92.6913
0
LINE
8
BLACK
6
CONTINUOUS
10
115.526
20
-92.6913
11
115.527
21
-92.6894
0
LINE
8
BLACK
6
CONTINUOUS
10
115.527
20
-92.6894
11
115.528
21
-92.6873
0
LINE
8
BLACK
6
CONTINUOUS
10
115.528
20
-92.6873
11
115.529
21
-92.6856
0
LINE
8
BLACK
6
CONTINUOUS
10
115.529
20
-92.6856
11
115.531
21
-92.6837
0
LINE
8
BLACK
6
CONTINUOUS
10
115.531
20
-92.6837
11
115.532
21
-92.6823
0
LINE
8
BLACK
6
CONTINUOUS
10
115.532
20
-92.6823
11
115.534
21
-92.6806
0
LINE
8
BLACK
6
CONTINUOUS
10
115.534
20
-92.6806
11
115.536
21
-92.6794
0
LINE
8
BLACK
6
CONTINUOUS
10
115.536
20
-92.6794
11
115.537
21
-92.678
0
LINE
8
BLACK
6
CONTINUOUS
10
115.537
20
-92.678
11
115.539
21
-92.6773
0
LINE
8
BLACK
6
CONTINUOUS
10
115.539
20
-92.6773
11
115.541
21
-92.6761
0
LINE
8
BLACK
6
CONTINUOUS
10
115.541
20
-92.6761
11
115.544
21
-92.6758
0
LINE
8
BLACK
6
CONTINUOUS
10
115.544
20
-92.6758
11
115.546
21
-92.675
0
LINE
8
BLACK
6
CONTINUOUS
10
115.546
20
-92.675
11
115.548
21
-92.675
0
LINE
8
BLACK
6
CONTINUOUS
10
115.548
20
-92.675
11
115.548
21
-92.675
0
LINE
8
BLACK
6
CONTINUOUS
10
115.548
20
-92.675
11
116.852
21
-92.675
0
LINE
8
BLACK
6
CONTINUOUS
10
116.852
20
-92.675
11
116.852
21
-92.675
0
LINE
8
BLACK
6
CONTINUOUS
10
116.852
20
-92.675
11
116.854
21
-92.675
0
LINE
8
BLACK
6
CONTINUOUS
10
116.854
20
-92.675
11
116.856
21
-92.6758
0
LINE
8
BLACK
6
CONTINUOUS
10
116.856
20
-92.6758
11
116.859
21
-92.6761
0
LINE
8
BLACK
6
CONTINUOUS
10
116.859
20
-92.6761
11
116.861
21
-92.6773
0
LINE
8
BLACK
6
CONTINUOUS
10
116.861
20
-92.6773
11
116.863
21
-92.678
0
LINE
8
BLACK
6
CONTINUOUS
10
116.863
20
-92.678
11
116.864
21
-92.6794
0
LINE
8
BLACK
6
CONTINUOUS
10
116.864
20
-92.6794
11
116.866
21
-92.6806
0
LINE
8
BLACK
6
CONTINUOUS
10
116.866
20
-92.6806
11
116.868
21
-92.6823
0
LINE
8
BLACK
6
CONTINUOUS
10
116.868
20
-92.6823
11
116.869
21
-92.6837
0
LINE
8
BLACK
6
CONTINUOUS
10
116.869
20
-92.6837
11
116.871
21
-92.6856
0
LINE
8
BLACK
6
CONTINUOUS
10
116.871
20
-92.6856
11
116.872
21
-92.6873
0
LINE
8
BLACK
6
CONTINUOUS
10
116.872
20
-92.6873
11
116.873
21
-92.6894
0
LINE
8
BLACK
6
CONTINUOUS
10
116.873
20
-92.6894
11
116.874
21
-92.6913
0
LINE
8
BLACK
6
CONTINUOUS
10
116.874
20
-92.6913
11
116.874
21
-92.6935
0
LINE
8
BLACK
6
CONTINUOUS
10
116.874
20
-92.6935
11
116.875
21
-92.6956
0
LINE
8
BLACK
6
CONTINUOUS
10
116.875
20
-92.6956
11
116.875
21
-92.6978
0
LINE
8
BLACK
6
CONTINUOUS
10
116.875
20
-92.6978
11
116.875
21
-92.6978
0
LINE
8
BLACK
6
CONTINUOUS
10
116.875
20
-92.6978
11
116.875
21
-96.3022
0
LINE
8
BLACK
6
CONTINUOUS
10
116.875
20
-96.3022
11
116.875
21
-96.3022
0
LINE
8
BLACK
6
CONTINUOUS
10
116.875
20
-96.3022
11
116.875
21
-96.3044
0
LINE
8
BLACK
6
CONTINUOUS
10
116.875
20
-96.3044
11
116.874
21
-96.3065
0
LINE
8
BLACK
6
CONTINUOUS
10
116.874
20
-96.3065
11
116.874
21
-96.3087
0
LINE
8
BLACK
6
CONTINUOUS
10
116.874
20
-96.3087
11
116.873
21
-96.3106
0
LINE
8
BLACK
6
CONTINUOUS
10
116.873
20
-96.3106
11
116.872
21
-96.3127
0
LINE
8
BLACK
6
CONTINUOUS
10
116.872
20
-96.3127
11
116.871
21
-96.3144
0
LINE
8
BLACK
6
CONTINUOUS
10
116.871
20
-96.3144
11
116.869
21
-96.3163
0
LINE
8
BLACK
6
CONTINUOUS
10
116.869
20
-96.3163
11
116.868
21
-96.3177
0
LINE
8
BLACK
6
CONTINUOUS
10
116.868
20
-96.3177
11
116.866
21
-96.3194
0
LINE
8
BLACK
6
CONTINUOUS
10
116.866
20
-96.3194
11
116.864
21
-96.3206
0
LINE
8
BLACK
6
CONTINUOUS
10
116.864
20
-96.3206
11
116.863
21
-96.322
0
LINE
8
BLACK
6
CONTINUOUS
10
116.863
20
-96.322
11
116.861
21
-96.3227
0
LINE
8
BLACK
6
CONTINUOUS
10
116.861
20
-96.3227
11
116.859
21
-96.3239
0
LINE
8
BLACK
6
CONTINUOUS
10
116.859
20
-96.3239
11
116.856
21
-96.3242
0
LINE
8
BLACK
6
CONTINUOUS
10
116.856
20
-96.3242
11
116.854
21
-96.325
0
LINE
8
BLACK
6
CONTINUOUS
10
116.854
20
-96.325
11
116.852
21
-96.325
0
LINE
8
BLACK
6
CONTINUOUS
10
116.852
20
-96.325
11
116.852
21
-96.325
0
LINE
8
BLACK
6
CONTINUOUS
10
116.852
20
-96.325
11
115.848
21
-96.325
0
LINE
8
BLACK
6
CONTINUOUS
10
115.848
20
-96.325
11
115.893
21
-96.6801
0
LINE
8
BLACK
6
CONTINUOUS
10
115.893
20
-96.6801
11
115.895
21
-96.8
0
LINE
8
BLACK
6
CONTINUOUS
10
115.895
20
-96.8
11
115.813
21
-97.6342
0
LINE
8
BLACK
6
CONTINUOUS
10
115.813
20
-97.6342
11
115.571
21
-98.4367
0
LINE
8
BLACK
6
CONTINUOUS
10
115.571
20
-98.4367
11
115.379
21
-98.7969
0
LINE
8
BLACK
6
CONTINUOUS
10
115.379
20
-98.7969
11
115.889
21
-98.9427
0
LINE
8
BLACK
6
CONTINUOUS
10
115.889
20
-98.9427
11
116.515
21
-99.2929
0
LINE
8
BLACK
6
CONTINUOUS
10
116.515
20
-99.2929
11
117.043
21
-99.7777
0
LINE
8
BLACK
6
CONTINUOUS
10
117.043
20
-99.7777
11
117.445
21
-100.371
0
LINE
8
BLACK
6
CONTINUOUS
10
117.445
20
-100.371
11
117.7
21
-101.041
0
LINE
8
BLACK
6
CONTINUOUS
10
117.7
20
-101.041
11
117.795
21
-101.751
0
LINE
8
BLACK
6
CONTINUOUS
10
117.795
20
-101.751
11
117.795
21
-101.8
0
LINE
8
BLACK
6
CONTINUOUS
10
117.795
20
-101.8
11
117.712
21
-102.512
0
LINE
8
BLACK
6
CONTINUOUS
10
117.712
20
-102.512
11
117.467
21
-103.186
0
LINE
8
BLACK
6
CONTINUOUS
10
98.125
20
-90.525
11
98.125
21
-101.075
0
LINE
8
BLACK
6
CONTINUOUS
10
98.125
20
-101.075
11
108.675
21
-101.075
0
LINE
8
BLACK
6
CONTINUOUS
10
108.675
20
-101.075
11
108.675
21
-99.933
0
LINE
8
BLACK
6
CONTINUOUS
10
108.675
20
-99.933
11
108.595
21
-99.8687
0
LINE
8
BLACK
6
CONTINUOUS
10
108.595
20
-99.8687
11
108.056
21
-99.2265
0
LINE
8
BLACK
6
CONTINUOUS
10
108.056
20
-99.2265
11
107.652
21
-98.492
0
LINE
8
BLACK
6
CONTINUOUS
10
107.652
20
-98.492
11
107.399
21
-97.693
0
LINE
8
BLACK
6
CONTINUOUS
10
107.399
20
-97.693
11
107.305
21
-96.86
0
LINE
8
BLACK
6
CONTINUOUS
10
107.305
20
-96.86
11
107.376
21
-96.0247
0
LINE
8
BLACK
6
CONTINUOUS
10
107.376
20
-96.0247
11
107.607
21
-95.2189
0
LINE
8
BLACK
6
CONTINUOUS
10
107.607
20
-95.2189
11
107.99
21
-94.4734
0
LINE
8
BLACK
6
CONTINUOUS
10
107.99
20
-94.4734
11
108.51
21
-93.8164
0
LINE
8
BLACK
6
CONTINUOUS
10
108.51
20
-93.8164
11
108.675
21
-93.6764
0
LINE
8
BLACK
6
CONTINUOUS
10
108.675
20
-93.6764
11
108.675
21
-90.525
0
LINE
8
BLACK
6
CONTINUOUS
10
108.675
20
-90.525
11
98.125
21
-90.525
0
LINE
8
BLACK
6
CONTINUOUS
10
113.846
20
-98.8981
11
113.201
21
-99.1724
0
LINE
8
BLACK
6
CONTINUOUS
10
113.201
20
-99.1724
11
112.637
21
-99.5877
0
LINE
8
BLACK
6
CONTINUOUS
10
112.637
20
-99.5877
11
112.183
21
-100.122
0
LINE
8
BLACK
6
CONTINUOUS
10
112.183
20
-100.122
11
111.865
21
-100.746
0
LINE
8
BLACK
6
CONTINUOUS
10
111.865
20
-100.746
11
111.802
21
-101.002
0
LINE
8
BLACK
6
CONTINUOUS
10
111.802
20
-101.002
11
112.334
21
-100.961
0
LINE
8
BLACK
6
CONTINUOUS
10
112.334
20
-100.961
11
113.128
21
-100.739
0
LINE
8
BLACK
6
CONTINUOUS
10
113.128
20
-100.739
11
113.864
21
-100.367
0
LINE
8
BLACK
6
CONTINUOUS
10
113.864
20
-100.367
11
114.514
21
-99.8596
0
LINE
8
BLACK
6
CONTINUOUS
10
114.514
20
-99.8596
11
115.052
21
-99.2354
0
LINE
8
BLACK
6
CONTINUOUS
10
115.052
20
-99.2354
11
115.279
21
-98.836
0
LINE
8
BLACK
6
CONTINUOUS
10
115.279
20
-98.836
11
115.236
21
-98.8228
0
LINE
8
BLACK
6
CONTINUOUS
10
115.236
20
-98.8228
11
114.536
21
-98.7794
0
LINE
8
BLACK
6
CONTINUOUS
10
114.536
20
-98.7794
11
113.846
21
-98.8981
0
LINE
8
BLACK
6
CONTINUOUS
10
108.644
20
-93.7814
11
108.114
21
-94.413
0
LINE
8
BLACK
6
CONTINUOUS
10
108.114
20
-94.413
11
107.717
21
-95.1356
0
LINE
8
BLACK
6
CONTINUOUS
10
107.717
20
-95.1356
11
107.467
21
-95.9216
0
LINE
8
BLACK
6
CONTINUOUS
10
107.467
20
-95.9216
11
107.375
21
-96.741
0
LINE
8
BLACK
6
CONTINUOUS
10
107.375
20
-96.741
11
107.444
21
-97.5627
0
LINE
8
BLACK
6
CONTINUOUS
10
107.444
20
-97.5627
11
107.672
21
-98.3553
0
LINE
8
BLACK
6
CONTINUOUS
10
107.672
20
-98.3553
11
108.049
21
-99.0887
0
LINE
8
BLACK
6
CONTINUOUS
10
108.049
20
-99.0887
11
108.561
21
-99.7349
0
LINE
8
BLACK
6
CONTINUOUS
10
108.561
20
-99.7349
11
108.675
21
-99.8321
0
LINE
8
BLACK
6
CONTINUOUS
10
108.675
20
-99.8321
11
108.675
21
-93.7564
0
LINE
8
BLACK
6
CONTINUOUS
10
108.675
20
-93.7564
11
108.644
21
-93.7814
0
LINE
8
BLACK
6
CONTINUOUS
10
115.575
20
-96.275
11
115.774
21
-96.275
0
LINE
8
BLACK
6
CONTINUOUS
10
115.774
20
-96.275
11
115.745
21
-95.9794
0
LINE
8
BLACK
6
CONTINUOUS
10
115.745
20
-95.9794
11
115.575
21
-95.4178
0
LINE
8
BLACK
6
CONTINUOUS
10
115.575
20
-95.4178
11
115.575
21
-96.275
0
LINE
8
BLACK
6
CONTINUOUS
10
115.575
20
-92.725
11
115.575
21
-95.2073
0
LINE
8
BLACK
6
CONTINUOUS
10
115.575
20
-95.2073
11
115.788
21
-95.8484
0
LINE
8
BLACK
6
CONTINUOUS
10
115.788
20
-95.8484
11
115.842
21
-96.275
0
LINE
8
BLACK
6
CONTINUOUS
10
115.842
20
-96.275
11
116.825
21
-96.275
0
LINE
8
BLACK
6
CONTINUOUS
10
116.825
20
-96.275
11
116.825
21
-92.725
0
LINE
8
BLACK
6
CONTINUOUS
10
116.825
20
-92.725
11
115.575
21
-92.725
0
LINE
8
BLACK
6
CONTINUOUS
10
117.405
20
-100.446
11
117.021
21
-99.8596
0
LINE
8
BLACK
6
CONTINUOUS
10
117.021
20
-99.8596
11
116.512
21
-99.3778
0
LINE
8
BLACK
6
CONTINUOUS
10
116.512
20
-99.3778
11
115.906
21
-99.0259
0
LINE
8
BLACK
6
CONTINUOUS
10
115.906
20
-99.0259
11
115.348
21
-98.8567
0
LINE
8
BLACK
6
CONTINUOUS
10
115.348
20
-98.8567
11
115.177
21
-99.1768
0
LINE
8
BLACK
6
CONTINUOUS
10
115.177
20
-99.1768
11
114.648
21
-99.8264
0
LINE
8
BLACK
6
CONTINUOUS
10
114.648
20
-99.8264
11
114.002
21
-100.361
0
LINE
8
BLACK
6
CONTINUOUS
10
114.002
20
-100.361
11
113.264
21
-100.759
0
LINE
8
BLACK
6
CONTINUOUS
10
113.264
20
-100.759
11
112.464
21
-101.007
0
LINE
8
BLACK
6
CONTINUOUS
10
112.464
20
-101.007
11
111.783
21
-101.079
0
LINE
8
BLACK
6
CONTINUOUS
10
111.783
20
-101.079
11
111.698
21
-101.426
0
LINE
8
BLACK
6
CONTINUOUS
10
111.698
20
-101.426
11
111.693
21
-102.127
0
LINE
8
BLACK
6
CONTINUOUS
10
111.693
20
-102.127
11
111.849
21
-102.81
0
LINE
8
BLACK
6
CONTINUOUS
10
111.849
20
-102.81
11
112.157
21
-103.439
0
LINE
8
BLACK
6
CONTINUOUS
10
112.157
20
-103.439
11
112.602
21
-103.98
0
LINE
8
BLACK
6
CONTINUOUS
10
112.602
20
-103.98
11
113.16
21
-104.404
0
LINE
8
BLACK
6
CONTINUOUS
10
113.16
20
-104.404
11
113.8
21
-104.688
0
LINE
8
BLACK
6
CONTINUOUS
10
113.8
20
-104.688
11
114.489
21
-104.818
0
LINE
8
BLACK
6
CONTINUOUS
10
114.489
20
-104.818
11
115.189
21
-104.785
0
LINE
8
BLACK
6
CONTINUOUS
10
115.189
20
-104.785
11
115.862
21
-104.593
0
LINE
8
BLACK
6
CONTINUOUS
10
115.862
20
-104.593
11
116.474
21
-104.25
0
LINE
8
BLACK
6
CONTINUOUS
10
116.474
20
-104.25
11
116.99
21
-103.777
0
LINE
8
BLACK
6
CONTINUOUS
10
116.99
20
-103.777
11
117.383
21
-103.197
0
LINE
8
BLACK
6
CONTINUOUS
10
117.383
20
-103.197
11
117.633
21
-102.542
0
LINE
8
BLACK
6
CONTINUOUS
10
117.633
20
-102.542
11
117.725
21
-101.848
0
LINE
8
BLACK
6
CONTINUOUS
10
117.725
20
-101.848
11
117.725
21
-101.8
0
LINE
8
BLACK
6
CONTINUOUS
10
117.725
20
-101.8
11
117.644
21
-101.104
0
LINE
8
BLACK
6
CONTINUOUS
10
117.644
20
-101.104
11
117.405
21
-100.446
0
LINE
8
BLACK
6
CONTINUOUS
10
115.548
20
-96.325
11
115.548
21
-96.325
0
LINE
8
BLACK
6
CONTINUOUS
10
115.548
20
-96.325
11
115.546
21
-96.325
0
LINE
8
BLACK
6
CONTINUOUS
10
115.546
20
-96.325
11
115.544
21
-96.3242
0
LINE
8
BLACK
6
CONTINUOUS
10
115.544
20
-96.3242
11
115.541
21
-96.3239
0
LINE
8
BLACK
6
CONTINUOUS
10
115.541
20
-96.3239
11
115.539
21
-96.3227
0
LINE
8
BLACK
6
CONTINUOUS
10
115.539
20
-96.3227
11
115.537
21
-96.322
0
LINE
8
BLACK
6
CONTINUOUS
10
115.537
20
-96.322
11
115.536
21
-96.3206
0
LINE
8
BLACK
6
CONTINUOUS
10
115.536
20
-96.3206
11
115.534
21
-96.3194
0
LINE
8
BLACK
6
CONTINUOUS
10
115.534
20
-96.3194
11
115.532
21
-96.3177
0
LINE
8
BLACK
6
CONTINUOUS
10
115.532
20
-96.3177
11
115.531
21
-96.3163
0
LINE
8
BLACK
6
CONTINUOUS
10
115.531
20
-96.3163
11
115.529
21
-96.3144
0
LINE
8
BLACK
6
CONTINUOUS
10
115.529
20
-96.3144
11
115.528
21
-96.3127
0
LINE
8
BLACK
6
CONTINUOUS
10
115.528
20
-96.3127
11
115.527
21
-96.3106
0
LINE
8
BLACK
6
CONTINUOUS
10
115.527
20
-96.3106
11
115.526
21
-96.3087
0
LINE
8
BLACK
6
CONTINUOUS
10
115.526
20
-96.3087
11
115.526
21
-96.3065
0
LINE
8
BLACK
6
CONTINUOUS
10
115.526
20
-96.3065
11
115.525
21
-96.3044
0
LINE
8
BLACK
6
CONTINUOUS
10
115.525
20
-96.3044
11
115.525
21
-96.3022
0
LINE
8
BLACK
6
CONTINUOUS
10
115.525
20
-96.3022
11
115.525
21
-96.3022
0
LINE
8
BLACK
6
CONTINUOUS
10
115.525
20
-96.3022
11
115.525
21
-95.2522
0
LINE
8
BLACK
6
CONTINUOUS
10
115.525
20
-95.2522
11
115.506
21
-95.19
0
LINE
8
BLACK
6
CONTINUOUS
10
115.506
20
-95.19
11
115.119
21
-94.4619
0
LINE
8
BLACK
6
CONTINUOUS
10
115.119
20
-94.4619
11
114.598
21
-93.8229
0
LINE
8
BLACK
6
CONTINUOUS
10
114.598
20
-93.8229
11
113.963
21
-93.2973
0
LINE
8
BLACK
6
CONTINUOUS
10
113.963
20
-93.2973
11
113.237
21
-92.9051
0
LINE
8
BLACK
6
CONTINUOUS
10
113.237
20
-92.9051
11
112.45
21
-92.6613
0
LINE
8
BLACK
6
CONTINUOUS
10
112.45
20
-92.6613
11
111.629
21
-92.5751
0
LINE
8
BLACK
6
CONTINUOUS
10
111.629
20
-92.5751
11
110.808
21
-92.6498
0
LINE
8
BLACK
6
CONTINUOUS
10
110.808
20
-92.6498
11
110.017
21
-92.8826
0
LINE
8
BLACK
6
CONTINUOUS
10
110.017
20
-92.8826
11
109.287
21
-93.2647
0
LINE
8
BLACK
6
CONTINUOUS
10
109.287
20
-93.2647
11
108.725
21
-93.7162
0
LINE
8
BLACK
6
CONTINUOUS
10
108.725
20
-93.7162
11
108.725
21
-99.8747
0
LINE
8
BLACK
6
CONTINUOUS
10
108.725
20
-99.8747
11
109.189
21
-100.269
0
LINE
8
BLACK
6
CONTINUOUS
10
109.189
20
-100.269
11
109.909
21
-100.672
0
LINE
8
BLACK
6
CONTINUOUS
10
109.909
20
-100.672
11
110.693
21
-100.926
0
LINE
8
BLACK
6
CONTINUOUS
10
110.693
20
-100.926
11
111.512
21
-101.024
0
LINE
8
BLACK
6
CONTINUOUS
10
111.512
20
-101.024
11
111.728
21
-101.007
0
LINE
8
BLACK
6
CONTINUOUS
10
111.728
20
-101.007
11
111.783
21
-100.767
0
LINE
8
BLACK
6
CONTINUOUS
10
111.783
20
-100.767
11
112.098
21
-100.123
0
LINE
8
BLACK
6
CONTINUOUS
10
112.098
20
-100.123
11
112.554
21
-99.5699
0
LINE
8
BLACK
6
CONTINUOUS
10
112.554
20
-99.5699
11
113.125
21
-99.136
0
LINE
8
BLACK
6
CONTINUOUS
10
113.125
20
-99.136
11
113.78
21
-98.845
0
LINE
8
BLACK
6
CONTINUOUS
10
113.78
20
-98.845
11
114.484
21
-98.7125
0
LINE
8
BLACK
6
CONTINUOUS
10
114.484
20
-98.7125
11
115.2
21
-98.7457
0
LINE
8
BLACK
6
CONTINUOUS
10
115.2
20
-98.7457
11
115.312
21
-98.7778
0
LINE
8
BLACK
6
CONTINUOUS
10
115.312
20
-98.7778
11
115.46
21
-98.5185
0
LINE
8
BLACK
6
CONTINUOUS
10
115.46
20
-98.5185
11
115.72
21
-97.736
0
LINE
8
BLACK
6
CONTINUOUS
10
115.72
20
-97.736
11
115.823
21
-96.918
0
LINE
8
BLACK
6
CONTINUOUS
10
115.823
20
-96.918
11
115.825
21
-96.8
0
LINE
8
BLACK
6
CONTINUOUS
10
115.825
20
-96.8
11
115.778
21
-96.325
0
LINE
8
BLACK
6
CONTINUOUS
10
115.778
20
-96.325
11
115.548
21
-96.325
0
LINE
8
BLACK
6
CONTINUOUS
10
146.367
20
-103.186
11
145.974
21
-103.785
0
LINE
8
BLACK
6
CONTINUOUS
10
145.974
20
-103.785
11
145.454
21
-104.278
0
LINE
8
BLACK
6
CONTINUOUS
10
145.454
20
-104.278
11
144.834
21
-104.638
0
LINE
8
BLACK
6
CONTINUOUS
10
144.834
20
-104.638
11
144.148
21
-104.846
0
LINE
8
BLACK
6
CONTINUOUS
10
144.148
20
-104.846
11
143.433
21
-104.89
0
LINE
8
BLACK
6
CONTINUOUS
10
143.433
20
-104.89
11
142.726
21
-104.769
0
LINE
8
BLACK
6
CONTINUOUS
10
142.726
20
-104.769
11
142.067
21
-104.488
0
LINE
8
BLACK
6
CONTINUOUS
10
142.067
20
-104.488
11
141.489
21
-104.064
0
LINE
8
BLACK
6
CONTINUOUS
10
141.489
20
-104.064
11
141.025
21
-103.517
0
LINE
8
BLACK
6
CONTINUOUS
10
141.025
20
-103.517
11
140.699
21
-102.879
0
LINE
8
BLACK
6
CONTINUOUS
10
140.699
20
-102.879
11
140.529
21
-102.183
0
LINE
8
BLACK
6
CONTINUOUS
10
140.529
20
-102.183
11
140.523
21
-101.466
0
LINE
8
BLACK
6
CONTINUOUS
10
140.523
20
-101.466
11
140.683
21
-100.767
0
LINE
8
BLACK
6
CONTINUOUS
10
140.683
20
-100.767
11
140.998
21
-100.123
0
LINE
8
BLACK
6
CONTINUOUS
10
140.998
20
-100.123
11
141.454
21
-99.5699
0
LINE
8
BLACK
6
CONTINUOUS
10
141.454
20
-99.5699
11
142.025
21
-99.136
0
LINE
8
BLACK
6
CONTINUOUS
10
142.025
20
-99.136
11
142.68
21
-98.845
0
LINE
8
BLACK
6
CONTINUOUS
10
142.68
20
-98.845
11
142.962
21
-98.7919
0
LINE
8
BLACK
6
CONTINUOUS
10
142.962
20
-98.7919
11
142.852
21
-98.592
0
LINE
8
BLACK
6
CONTINUOUS
10
142.852
20
-98.592
11
142.599
21
-97.793
0
LINE
8
BLACK
6
CONTINUOUS
10
142.599
20
-97.793
11
142.505
21
-96.96
0
LINE
8
BLACK
6
CONTINUOUS
10
142.505
20
-96.96
11
142.576
21
-96.1247
0
LINE
8
BLACK
6
CONTINUOUS
10
142.576
20
-96.1247
11
142.807
21
-95.3189
0
LINE
8
BLACK
6
CONTINUOUS
10
142.807
20
-95.3189
11
143.19
21
-94.5734
0
LINE
8
BLACK
6
CONTINUOUS
10
143.19
20
-94.5734
11
143.71
21
-93.9164
0
LINE
8
BLACK
6
CONTINUOUS
10
143.71
20
-93.9164
11
144.349
21
-93.3732
0
LINE
8
BLACK
6
CONTINUOUS
10
144.349
20
-93.3732
11
145.081
21
-92.9642
0
LINE
8
BLACK
6
CONTINUOUS
10
145.081
20
-92.9642
11
145.878
21
-92.7052
0
LINE
8
BLACK
6
CONTINUOUS
10
145.878
20
-92.7052
11
146.71
21
-92.6059
0
LINE
8
BLACK
6
CONTINUOUS
10
146.71
20
-92.6059
11
147.546
21
-92.6703
0
LINE
8
BLACK
6
CONTINUOUS
10
147.546
20
-92.6703
11
148.353
21
-92.8957
0
LINE
8
BLACK
6
CONTINUOUS
10
148.353
20
-92.8957
11
149.101
21
-93.2736
0
LINE
8
BLACK
6
CONTINUOUS
10
149.101
20
-93.2736
11
149.762
21
-93.7897
0
LINE
8
BLACK
6
CONTINUOUS
10
149.762
20
-93.7897
11
150.31
21
-94.4242
0
LINE
8
BLACK
6
CONTINUOUS
10
150.31
20
-94.4242
11
150.724
21
-95.1531
0
LINE
8
BLACK
6
CONTINUOUS
10
150.724
20
-95.1531
11
150.988
21
-95.9484
0
LINE
8
BLACK
6
CONTINUOUS
10
150.988
20
-95.9484
11
151.093
21
-96.7801
0
LINE
8
BLACK
6
CONTINUOUS
10
151.093
20
-96.7801
11
151.095
21
-96.9
0
LINE
8
BLACK
6
CONTINUOUS
10
151.095
20
-96.9
11
151.013
21
-97.7342
0
LINE
8
BLACK
6
CONTINUOUS
10
151.013
20
-97.7342
11
150.771
21
-98.5367
0
LINE
8
BLACK
6
CONTINUOUS
10
150.771
20
-98.5367
11
150.377
21
-99.2768
0
LINE
8
BLACK
6
CONTINUOUS
10
150.377
20
-99.2768
11
149.848
21
-99.9264
0
LINE
8
BLACK
6
CONTINUOUS
10
149.848
20
-99.9264
11
149.202
21
-100.461
0
LINE
8
BLACK
6
CONTINUOUS
10
149.202
20
-100.461
11
148.464
21
-100.859
0
LINE
8
BLACK
6
CONTINUOUS
10
148.464
20
-100.859
11
147.664
21
-101.107
0
LINE
8
BLACK
6
CONTINUOUS
10
147.664
20
-101.107
11
146.83
21
-101.195
0
LINE
8
BLACK
6
CONTINUOUS
10
146.83
20
-101.195
11
146.618
21
-101.176
0
LINE
8
BLACK
6
CONTINUOUS
10
146.618
20
-101.176
11
146.695
21
-101.751
0
LINE
8
BLACK
6
CONTINUOUS
10
146.695
20
-101.751
11
146.695
21
-101.8
0
LINE
8
BLACK
6
CONTINUOUS
10
146.695
20
-101.8
11
146.612
21
-102.512
0
LINE
8
BLACK
6
CONTINUOUS
10
146.612
20
-102.512
11
146.367
21
-103.186
0
LINE
8
BLACK
6
CONTINUOUS
10
143.071
20
-98.8423
11
143.249
21
-99.1887
0
LINE
8
BLACK
6
CONTINUOUS
10
143.249
20
-99.1887
11
143.761
21
-99.8349
0
LINE
8
BLACK
6
CONTINUOUS
10
143.761
20
-99.8349
11
144.389
21
-100.369
0
LINE
8
BLACK
6
CONTINUOUS
10
144.389
20
-100.369
11
145.109
21
-100.772
0
LINE
8
BLACK
6
CONTINUOUS
10
145.109
20
-100.772
11
145.893
21
-101.026
0
LINE
8
BLACK
6
CONTINUOUS
10
145.893
20
-101.026
11
146.544
21
-101.104
0
LINE
8
BLACK
6
CONTINUOUS
10
146.544
20
-101.104
11
146.305
21
-100.446
0
LINE
8
BLACK
6
CONTINUOUS
10
146.305
20
-100.446
11
145.921
21
-99.8596
0
LINE
8
BLACK
6
CONTINUOUS
10
145.921
20
-99.8596
11
145.412
21
-99.3778
0
LINE
8
BLACK
6
CONTINUOUS
10
145.412
20
-99.3778
11
144.806
21
-99.0259
0
LINE
8
BLACK
6
CONTINUOUS
10
144.806
20
-99.0259
11
144.136
21
-98.8228
0
LINE
8
BLACK
6
CONTINUOUS
10
144.136
20
-98.8228
11
143.436
21
-98.7794
0
LINE
8
BLACK
6
CONTINUOUS
10
143.436
20
-98.7794
11
143.071
21
-98.8423
0
LINE
8
BLACK
6
CONTINUOUS
10
145.995
20
-101.119
11
145.191
21
-100.882
0
LINE
8
BLACK
6
CONTINUOUS
10
145.191
20
-100.882
11
144.448
21
-100.494
0
LINE
8
BLACK
6
CONTINUOUS
10
144.448
20
-100.494
11
143.795
21
-99.9687
0
LINE
8
BLACK
6
CONTINUOUS
10
143.795
20
-99.9687
11
143.256
21
-99.3265
0
LINE
8
BLACK
6
CONTINUOUS
10
143.256
20
-99.3265
11
142.997
21
-98.855
0
LINE
8
BLACK
6
CONTINUOUS
10
142.997
20
-98.855
11
142.746
21
-98.8981
0
LINE
8
BLACK
6
CONTINUOUS
10
142.746
20
-98.8981
11
142.101
21
-99.1724
0
LINE
8
BLACK
6
CONTINUOUS
10
142.101
20
-99.1724
11
141.537
21
-99.5877
0
LINE
8
BLACK
6
CONTINUOUS
10
141.537
20
-99.5877
11
141.083
21
-100.122
0
LINE
8
BLACK
6
CONTINUOUS
10
141.083
20
-100.122
11
140.765
21
-100.746
0
LINE
8
BLACK
6
CONTINUOUS
10
140.765
20
-100.746
11
140.598
21
-101.426
0
LINE
8
BLACK
6
CONTINUOUS
10
140.598
20
-101.426
11
140.593
21
-102.127
0
LINE
8
BLACK
6
CONTINUOUS
10
140.593
20
-102.127
11
140.749
21
-102.81
0
LINE
8
BLACK
6
CONTINUOUS
10
140.749
20
-102.81
11
141.057
21
-103.439
0
LINE
8
BLACK
6
CONTINUOUS
10
141.057
20
-103.439
11
141.502
21
-103.98
0
LINE
8
BLACK
6
CONTINUOUS
10
141.502
20
-103.98
11
142.06
21
-104.404
0
LINE
8
BLACK
6
CONTINUOUS
10
142.06
20
-104.404
11
142.7
21
-104.688
0
LINE
8
BLACK
6
CONTINUOUS
10
142.7
20
-104.688
11
143.389
21
-104.818
0
LINE
8
BLACK
6
CONTINUOUS
10
143.389
20
-104.818
11
144.089
21
-104.785
0
LINE
8
BLACK
6
CONTINUOUS
10
144.089
20
-104.785
11
144.762
21
-104.593
0
LINE
8
BLACK
6
CONTINUOUS
10
144.762
20
-104.593
11
145.374
21
-104.25
0
LINE
8
BLACK
6
CONTINUOUS
10
145.374
20
-104.25
11
145.89
21
-103.777
0
LINE
8
BLACK
6
CONTINUOUS
10
145.89
20
-103.777
11
146.283
21
-103.197
0
LINE
8
BLACK
6
CONTINUOUS
10
146.283
20
-103.197
11
146.533
21
-102.542
0
LINE
8
BLACK
6
CONTINUOUS
10
146.533
20
-102.542
11
146.625
21
-101.848
0
LINE
8
BLACK
6
CONTINUOUS
10
146.625
20
-101.848
11
146.625
21
-101.8
0
LINE
8
BLACK
6
CONTINUOUS
10
146.625
20
-101.8
11
146.551
21
-101.17
0
LINE
8
BLACK
6
CONTINUOUS
10
146.551
20
-101.17
11
145.995
21
-101.119
0
LINE
8
BLACK
6
CONTINUOUS
10
150.706
20
-95.29
11
150.319
21
-94.5619
0
LINE
8
BLACK
6
CONTINUOUS
10
150.319
20
-94.5619
11
149.798
21
-93.9229
0
LINE
8
BLACK
6
CONTINUOUS
10
149.798
20
-93.9229
11
149.163
21
-93.3973
0
LINE
8
BLACK
6
CONTINUOUS
10
149.163
20
-93.3973
11
148.437
21
-93.0051
0
LINE
8
BLACK
6
CONTINUOUS
10
148.437
20
-93.0051
11
147.65
21
-92.7613
0
LINE
8
BLACK
6
CONTINUOUS
10
147.65
20
-92.7613
11
146.829
21
-92.6751
0
LINE
8
BLACK
6
CONTINUOUS
10
146.829
20
-92.6751
11
146.008
21
-92.7498
0
LINE
8
BLACK
6
CONTINUOUS
10
146.008
20
-92.7498
11
145.217
21
-92.9826
0
LINE
8
BLACK
6
CONTINUOUS
10
145.217
20
-92.9826
11
144.487
21
-93.3647
0
LINE
8
BLACK
6
CONTINUOUS
10
144.487
20
-93.3647
11
143.844
21
-93.8814
0
LINE
8
BLACK
6
CONTINUOUS
10
143.844
20
-93.8814
11
143.314
21
-94.513
0
LINE
8
BLACK
6
CONTINUOUS
10
143.314
20
-94.513
11
142.917
21
-95.2356
0
LINE
8
BLACK
6
CONTINUOUS
10
142.917
20
-95.2356
11
142.667
21
-96.0216
0
LINE
8
BLACK
6
CONTINUOUS
10
142.667
20
-96.0216
11
142.575
21
-96.841
0
LINE
8
BLACK
6
CONTINUOUS
10
142.575
20
-96.841
11
142.644
21
-97.6627
0
LINE
8
BLACK
6
CONTINUOUS
10
142.644
20
-97.6627
11
142.872
21
-98.4553
0
LINE
8
BLACK
6
CONTINUOUS
10
142.872
20
-98.4553
11
143.037
21
-98.7777
0
LINE
8
BLACK
6
CONTINUOUS
10
143.037
20
-98.7777
11
143.384
21
-98.7125
0
LINE
8
BLACK
6
CONTINUOUS
10
143.384
20
-98.7125
11
144.1
21
-98.7457
0
LINE
8
BLACK
6
CONTINUOUS
10
144.1
20
-98.7457
11
144.789
21
-98.9427
0
LINE
8
BLACK
6
CONTINUOUS
10
144.789
20
-98.9427
11
145.415
21
-99.2929
0
LINE
8
BLACK
6
CONTINUOUS
10
145.415
20
-99.2929
11
145.943
21
-99.7777
0
LINE
8
BLACK
6
CONTINUOUS
10
145.943
20
-99.7777
11
146.345
21
-100.371
0
LINE
8
BLACK
6
CONTINUOUS
10
146.345
20
-100.371
11
146.6
21
-101.041
0
LINE
8
BLACK
6
CONTINUOUS
10
146.6
20
-101.041
11
146.61
21
-101.112
0
LINE
8
BLACK
6
CONTINUOUS
10
146.61
20
-101.112
11
146.712
21
-101.124
0
LINE
8
BLACK
6
CONTINUOUS
10
146.712
20
-101.124
11
147.534
21
-101.061
0
LINE
8
BLACK
6
CONTINUOUS
10
147.534
20
-101.061
11
148.328
21
-100.839
0
LINE
8
BLACK
6
CONTINUOUS
10
148.328
20
-100.839
11
149.064
21
-100.467
0
LINE
8
BLACK
6
CONTINUOUS
10
149.064
20
-100.467
11
149.714
21
-99.9596
0
LINE
8
BLACK
6
CONTINUOUS
10
149.714
20
-99.9596
11
150.252
21
-99.3354
0
LINE
8
BLACK
6
CONTINUOUS
10
150.252
20
-99.3354
11
150.66
21
-98.6185
0
LINE
8
BLACK
6
CONTINUOUS
10
150.66
20
-98.6185
11
150.92
21
-97.836
0
LINE
8
BLACK
6
CONTINUOUS
10
150.92
20
-97.836
11
151.023
21
-97.018
0
LINE
8
BLACK
6
CONTINUOUS
10
151.023
20
-97.018
11
151.025
21
-96.9
0
LINE
8
BLACK
6
CONTINUOUS
10
151.025
20
-96.9
11
150.945
21
-96.0794
0
LINE
8
BLACK
6
CONTINUOUS
10
150.945
20
-96.0794
11
150.706
21
-95.29
0
LINE
8
BLACK
6
CONTINUOUS
10
108.802
20
-101.825
11
108.804
21
-101.825
0
LINE
8
BLACK
6
CONTINUOUS
10
108.804
20
-101.825
11
108.806
21
-101.826
0
LINE
8
BLACK
6
CONTINUOUS
10
108.806
20
-101.826
11
108.809
21
-101.826
0
LINE
8
BLACK
6
CONTINUOUS
10
108.809
20
-101.826
11
108.811
21
-101.827
0
LINE
8
BLACK
6
CONTINUOUS
10
108.811
20
-101.827
11
108.813
21
-101.828
0
LINE
8
BLACK
6
CONTINUOUS
10
108.813
20
-101.828
11
108.814
21
-101.829
0
LINE
8
BLACK
6
CONTINUOUS
10
108.814
20
-101.829
11
108.816
21
-101.831
0
LINE
8
BLACK
6
CONTINUOUS
10
108.816
20
-101.831
11
108.818
21
-101.832
0
LINE
8
BLACK
6
CONTINUOUS
10
108.818
20
-101.832
11
108.819
21
-101.834
0
LINE
8
BLACK
6
CONTINUOUS
10
108.819
20
-101.834
11
108.821
21
-101.836
0
LINE
8
BLACK
6
CONTINUOUS
10
108.821
20
-101.836
11
108.822
21
-101.837
0
LINE
8
BLACK
6
CONTINUOUS
10
108.822
20
-101.837
11
108.823
21
-101.839
0
LINE
8
BLACK
6
CONTINUOUS
10
108.823
20
-101.839
11
108.824
21
-101.841
0
LINE
8
BLACK
6
CONTINUOUS
10
108.824
20
-101.841
11
108.824
21
-101.844
0
LINE
8
BLACK
6
CONTINUOUS
10
108.824
20
-101.844
11
108.825
21
-101.846
0
LINE
8
BLACK
6
CONTINUOUS
10
108.825
20
-101.846
11
108.825
21
-101.848
0
LINE
8
BLACK
6
CONTINUOUS
10
108.825
20
-101.848
11
108.825
21
-101.848
0
LINE
8
BLACK
6
CONTINUOUS
10
108.825
20
-101.848
11
108.825
21
-103.152
0
LINE
8
BLACK
6
CONTINUOUS
10
108.825
20
-103.152
11
108.825
21
-103.152
0
LINE
8
BLACK
6
CONTINUOUS
10
108.825
20
-103.152
11
108.825
21
-103.154
0
LINE
8
BLACK
6
CONTINUOUS
10
108.825
20
-103.154
11
108.824
21
-103.156
0
LINE
8
BLACK
6
CONTINUOUS
10
108.824
20
-103.156
11
108.824
21
-103.159
0
LINE
8
BLACK
6
CONTINUOUS
10
108.824
20
-103.159
11
108.823
21
-103.161
0
LINE
8
BLACK
6
CONTINUOUS
10
108.823
20
-103.161
11
108.822
21
-103.163
0
LINE
8
BLACK
6
CONTINUOUS
10
108.822
20
-103.163
11
108.821
21
-103.164
0
LINE
8
BLACK
6
CONTINUOUS
10
108.821
20
-103.164
11
108.819
21
-103.166
0
LINE
8
BLACK
6
CONTINUOUS
10
108.819
20
-103.166
11
108.818
21
-103.168
0
LINE
8
BLACK
6
CONTINUOUS
10
108.818
20
-103.168
11
108.816
21
-103.169
0
LINE
8
BLACK
6
CONTINUOUS
10
108.816
20
-103.169
11
108.814
21
-103.171
0
LINE
8
BLACK
6
CONTINUOUS
10
108.814
20
-103.171
11
108.813
21
-103.172
0
LINE
8
BLACK
6
CONTINUOUS
10
108.813
20
-103.172
11
108.811
21
-103.173
0
LINE
8
BLACK
6
CONTINUOUS
10
108.811
20
-103.173
11
108.809
21
-103.174
0
LINE
8
BLACK
6
CONTINUOUS
10
108.809
20
-103.174
11
108.806
21
-103.174
0
LINE
8
BLACK
6
CONTINUOUS
10
108.806
20
-103.174
11
108.804
21
-103.175
0
LINE
8
BLACK
6
CONTINUOUS
10
108.804
20
-103.175
11
108.802
21
-103.175
0
LINE
8
BLACK
6
CONTINUOUS
10
108.802
20
-103.175
11
108.802
21
-103.175
0
LINE
8
BLACK
6
CONTINUOUS
10
108.802
20
-103.175
11
105.198
21
-103.175
0
LINE
8
BLACK
6
CONTINUOUS
10
105.198
20
-103.175
11
105.198
21
-103.175
0
LINE
8
BLACK
6
CONTINUOUS
10
105.198
20
-103.175
11
105.196
21
-103.175
0
LINE
8
BLACK
6
CONTINUOUS
10
105.196
20
-103.175
11
105.194
21
-103.174
0
LINE
8
BLACK
6
CONTINUOUS
10
105.194
20
-103.174
11
105.191
21
-103.174
0
LINE
8
BLACK
6
CONTINUOUS
10
105.191
20
-103.174
11
105.189
21
-103.173
0
LINE
8
BLACK
6
CONTINUOUS
10
105.189
20
-103.173
11
105.187
21
-103.172
0
LINE
8
BLACK
6
CONTINUOUS
10
105.187
20
-103.172
11
105.186
21
-103.171
0
LINE
8
BLACK
6
CONTINUOUS
10
105.186
20
-103.171
11
105.184
21
-103.169
0
LINE
8
BLACK
6
CONTINUOUS
10
105.184
20
-103.169
11
105.182
21
-103.168
0
LINE
8
BLACK
6
CONTINUOUS
10
105.182
20
-103.168
11
105.181
21
-103.166
0
LINE
8
BLACK
6
CONTINUOUS
10
105.181
20
-103.166
11
105.179
21
-103.164
0
LINE
8
BLACK
6
CONTINUOUS
10
105.179
20
-103.164
11
105.178
21
-103.163
0
LINE
8
BLACK
6
CONTINUOUS
10
105.178
20
-103.163
11
105.177
21
-103.161
0
LINE
8
BLACK
6
CONTINUOUS
10
105.177
20
-103.161
11
105.176
21
-103.159
0
LINE
8
BLACK
6
CONTINUOUS
10
105.176
20
-103.159
11
105.176
21
-103.156
0
LINE
8
BLACK
6
CONTINUOUS
10
105.176
20
-103.156
11
105.175
21
-103.154
0
LINE
8
BLACK
6
CONTINUOUS
10
105.175
20
-103.154
11
105.175
21
-103.146
0
LINE
8
BLACK
6
CONTINUOUS
10
105.175
20
-103.146
11
105.175
21
-101.848
0
LINE
8
BLACK
6
CONTINUOUS
10
105.175
20
-101.848
11
105.175
21
-101.848
0
LINE
8
BLACK
6
CONTINUOUS
10
105.175
20
-101.848
11
105.175
21
-101.846
0
LINE
8
BLACK
6
CONTINUOUS
10
105.175
20
-101.846
11
105.176
21
-101.844
0
LINE
8
BLACK
6
CONTINUOUS
10
105.176
20
-101.844
11
105.176
21
-101.841
0
LINE
8
BLACK
6
CONTINUOUS
10
105.176
20
-101.841
11
105.177
21
-101.839
0
LINE
8
BLACK
6
CONTINUOUS
10
105.177
20
-101.839
11
105.178
21
-101.837
0
LINE
8
BLACK
6
CONTINUOUS
10
105.178
20
-101.837
11
105.179
21
-101.836
0
LINE
8
BLACK
6
CONTINUOUS
10
105.179
20
-101.836
11
105.181
21
-101.834
0
LINE
8
BLACK
6
CONTINUOUS
10
105.181
20
-101.834
11
105.182
21
-101.832
0
LINE
8
BLACK
6
CONTINUOUS
10
105.182
20
-101.832
11
105.184
21
-101.831
0
LINE
8
BLACK
6
CONTINUOUS
10
105.184
20
-101.831
11
105.186
21
-101.829
0
LINE
8
BLACK
6
CONTINUOUS
10
105.186
20
-101.829
11
105.187
21
-101.828
0
LINE
8
BLACK
6
CONTINUOUS
10
105.187
20
-101.828
11
105.189
21
-101.827
0
LINE
8
BLACK
6
CONTINUOUS
10
105.189
20
-101.827
11
105.191
21
-101.826
0
LINE
8
BLACK
6
CONTINUOUS
10
105.191
20
-101.826
11
105.194
21
-101.826
0
LINE
8
BLACK
6
CONTINUOUS
10
105.194
20
-101.826
11
105.196
21
-101.825
0
LINE
8
BLACK
6
CONTINUOUS
10
105.196
20
-101.825
11
105.198
21
-101.825
0
LINE
8
BLACK
6
CONTINUOUS
10
105.198
20
-101.825
11
105.198
21
-101.825
0
LINE
8
BLACK
6
CONTINUOUS
10
105.198
20
-101.825
11
108.802
21
-101.825
0
LINE
8
BLACK
6
CONTINUOUS
10
108.802
20
-101.825
11
108.802
21
-101.825
0
LINE
8
BLACK
6
CONTINUOUS
10
105.225
20
-101.875
11
105.225
21
-103.125
0
LINE
8
BLACK
6
CONTINUOUS
10
105.225
20
-103.125
11
108.775
21
-103.125
0
LINE
8
BLACK
6
CONTINUOUS
10
108.775
20
-103.125
11
108.775
21
-101.875
0
LINE
8
BLACK
6
CONTINUOUS
10
108.775
20
-101.875
11
105.225
21
-101.875
0
LINE
8
BLACK
6
CONTINUOUS
10
122.802
20
-92.175
11
122.804
21
-92.175
0
LINE
8
BLACK
6
CONTINUOUS
10
122.804
20
-92.175
11
122.806
21
-92.1758
0
LINE
8
BLACK
6
CONTINUOUS
10
122.806
20
-92.1758
11
122.809
21
-92.1761
0
LINE
8
BLACK
6
CONTINUOUS
10
122.809
20
-92.1761
11
122.811
21
-92.1773
0
LINE
8
BLACK
6
CONTINUOUS
10
122.811
20
-92.1773
11
122.813
21
-92.178
0
LINE
8
BLACK
6
CONTINUOUS
10
122.813
20
-92.178
11
122.814
21
-92.1794
0
LINE
8
BLACK
6
CONTINUOUS
10
122.814
20
-92.1794
11
122.816
21
-92.1806
0
LINE
8
BLACK
6
CONTINUOUS
10
122.816
20
-92.1806
11
122.818
21
-92.1823
0
LINE
8
BLACK
6
CONTINUOUS
10
122.818
20
-92.1823
11
122.819
21
-92.1837
0
LINE
8
BLACK
6
CONTINUOUS
10
122.819
20
-92.1837
11
122.821
21
-92.1856
0
LINE
8
BLACK
6
CONTINUOUS
10
122.821
20
-92.1856
11
122.822
21
-92.1873
0
LINE
8
BLACK
6
CONTINUOUS
10
122.822
20
-92.1873
11
122.823
21
-92.1894
0
LINE
8
BLACK
6
CONTINUOUS
10
122.823
20
-92.1894
11
122.824
21
-92.1913
0
LINE
8
BLACK
6
CONTINUOUS
10
122.824
20
-92.1913
11
122.824
21
-92.1935
0
LINE
8
BLACK
6
CONTINUOUS
10
122.824
20
-92.1935
11
122.825
21
-92.1956
0
LINE
8
BLACK
6
CONTINUOUS
10
122.825
20
-92.1956
11
122.825
21
-92.1978
0
LINE
8
BLACK
6
CONTINUOUS
10
122.825
20
-92.1978
11
122.825
21
-92.1978
0
LINE
8
BLACK
6
CONTINUOUS
10
122.825
20
-92.1978
11
122.825
21
-96.8022
0
LINE
8
BLACK
6
CONTINUOUS
10
122.825
20
-96.8022
11
122.825
21
-96.8022
0
LINE
8
BLACK
6
CONTINUOUS
10
122.825
20
-96.8022
11
122.825
21
-96.8044
0
LINE
8
BLACK
6
CONTINUOUS
10
122.825
20
-96.8044
11
122.824
21
-96.8065
0
LINE
8
BLACK
6
CONTINUOUS
10
122.824
20
-96.8065
11
122.824
21
-96.8087
0
LINE
8
BLACK
6
CONTINUOUS
10
122.824
20
-96.8087
11
122.823
21
-96.8106
0
LINE
8
BLACK
6
CONTINUOUS
10
122.823
20
-96.8106
11
122.822
21
-96.8127
0
LINE
8
BLACK
6
CONTINUOUS
10
122.822
20
-96.8127
11
122.821
21
-96.8144
0
LINE
8
BLACK
6
CONTINUOUS
10
122.821
20
-96.8144
11
122.819
21
-96.8163
0
LINE
8
BLACK
6
CONTINUOUS
10
122.819
20
-96.8163
11
122.818
21
-96.8177
0
LINE
8
BLACK
6
CONTINUOUS
10
122.818
20
-96.8177
11
122.816
21
-96.8194
0
LINE
8
BLACK
6
CONTINUOUS
10
122.816
20
-96.8194
11
122.814
21
-96.8206
0
LINE
8
BLACK
6
CONTINUOUS
10
122.814
20
-96.8206
11
122.813
21
-96.822
0
LINE
8
BLACK
6
CONTINUOUS
10
122.813
20
-96.822
11
122.811
21
-96.8227
0
LINE
8
BLACK
6
CONTINUOUS
10
122.811
20
-96.8227
11
122.809
21
-96.8239
0
LINE
8
BLACK
6
CONTINUOUS
10
122.809
20
-96.8239
11
122.806
21
-96.8242
0
LINE
8
BLACK
6
CONTINUOUS
10
122.806
20
-96.8242
11
122.804
21
-96.825
0
LINE
8
BLACK
6
CONTINUOUS
10
122.804
20
-96.825
11
122.802
21
-96.825
0
LINE
8
BLACK
6
CONTINUOUS
10
122.802
20
-96.825
11
122.802
21
-96.825
0
LINE
8
BLACK
6
CONTINUOUS
10
122.802
20
-96.825
11
117.198
21
-96.825
0
LINE
8
BLACK
6
CONTINUOUS
10
117.198
20
-96.825
11
117.198
21
-96.825
0
LINE
8
BLACK
6
CONTINUOUS
10
117.198
20
-96.825
11
117.196
21
-96.825
0
LINE
8
BLACK
6
CONTINUOUS
10
117.196
20
-96.825
11
117.194
21
-96.8242
0
LINE
8
BLACK
6
CONTINUOUS
10
117.194
20
-96.8242
11
117.191
21
-96.8239
0
LINE
8
BLACK
6
CONTINUOUS
10
117.191
20
-96.8239
11
117.189
21
-96.8227
0
LINE
8
BLACK
6
CONTINUOUS
10
117.189
20
-96.8227
11
117.187
21
-96.822
0
LINE
8
BLACK
6
CONTINUOUS
10
117.187
20
-96.822
11
117.186
21
-96.8206
0
LINE
8
BLACK
6
CONTINUOUS
10
117.186
20
-96.8206
11
117.184
21
-96.8194
0
LINE
8
BLACK
6
CONTINUOUS
10
117.184
20
-96.8194
11
117.182
21
-96.8177
0
LINE
8
BLACK
6
CONTINUOUS
10
117.182
20
-96.8177
11
117.181
21
-96.8163
0
LINE
8
BLACK
6
CONTINUOUS
10
117.181
20
-96.8163
11
117.179
21
-96.8144
0
LINE
8
BLACK
6
CONTINUOUS
10
117.179
20
-96.8144
11
117.178
21
-96.8127
0
LINE
8
BLACK
6
CONTINUOUS
10
117.178
20
-96.8127
11
117.177
21
-96.8106
0
LINE
8
BLACK
6
CONTINUOUS
10
117.177
20
-96.8106
11
117.176
21
-96.8087
0
LINE
8
BLACK
6
CONTINUOUS
10
117.176
20
-96.8087
11
117.176
21
-96.8065
0
LINE
8
BLACK
6
CONTINUOUS
10
117.176
20
-96.8065
11
117.175
21
-96.8044
0
LINE
8
BLACK
6
CONTINUOUS
10
117.175
20
-96.8044
11
117.175
21
-96.7956
0
LINE
8
BLACK
6
CONTINUOUS
10
117.175
20
-96.7956
11
117.175
21
-92.1978
0
LINE
8
BLACK
6
CONTINUOUS
10
117.175
20
-92.1978
11
117.175
21
-92.1978
0
LINE
8
BLACK
6
CONTINUOUS
10
117.175
20
-92.1978
11
117.175
21
-92.1956
0
LINE
8
BLACK
6
CONTINUOUS
10
117.175
20
-92.1956
11
117.176
21
-92.1935
0
LINE
8
BLACK
6
CONTINUOUS
10
117.176
20
-92.1935
11
117.176
21
-92.1913
0
LINE
8
BLACK
6
CONTINUOUS
10
117.176
20
-92.1913
11
117.177
21
-92.1894
0
LINE
8
BLACK
6
CONTINUOUS
10
117.177
20
-92.1894
11
117.178
21
-92.1873
0
LINE
8
BLACK
6
CONTINUOUS
10
117.178
20
-92.1873
11
117.179
21
-92.1856
0
LINE
8
BLACK
6
CONTINUOUS
10
117.179
20
-92.1856
11
117.181
21
-92.1837
0
LINE
8
BLACK
6
CONTINUOUS
10
117.181
20
-92.1837
11
117.182
21
-92.1823
0
LINE
8
BLACK
6
CONTINUOUS
10
117.182
20
-92.1823
11
117.184
21
-92.1806
0
LINE
8
BLACK
6
CONTINUOUS
10
117.184
20
-92.1806
11
117.186
21
-92.1794
0
LINE
8
BLACK
6
CONTINUOUS
10
117.186
20
-92.1794
11
117.187
21
-92.178
0
LINE
8
BLACK
6
CONTINUOUS
10
117.187
20
-92.178
11
117.189
21
-92.1773
0
LINE
8
BLACK
6
CONTINUOUS
10
117.189
20
-92.1773
11
117.191
21
-92.1761
0
LINE
8
BLACK
6
CONTINUOUS
10
117.191
20
-92.1761
11
117.194
21
-92.1758
0
LINE
8
BLACK
6
CONTINUOUS
10
117.194
20
-92.1758
11
117.196
21
-92.175
0
LINE
8
BLACK
6
CONTINUOUS
10
117.196
20
-92.175
11
117.198
21
-92.175
0
LINE
8
BLACK
6
CONTINUOUS
10
117.198
20
-92.175
11
117.198
21
-92.175
0
LINE
8
BLACK
6
CONTINUOUS
10
117.198
20
-92.175
11
122.802
21
-92.175
0
LINE
8
BLACK
6
CONTINUOUS
10
122.802
20
-92.175
11
122.802
21
-92.175
0
LINE
8
BLACK
6
CONTINUOUS
10
117.225
20
-92.225
11
117.225
21
-96.775
0
LINE
8
BLACK
6
CONTINUOUS
10
117.225
20
-96.775
11
122.775
21
-96.775
0
LINE
8
BLACK
6
CONTINUOUS
10
122.775
20
-96.775
11
122.775
21
-92.225
0
LINE
8
BLACK
6
CONTINUOUS
10
122.775
20
-92.225
11
117.225
21
-92.225
0
LINE
8
BLACK
6
CONTINUOUS
10
124.652
20
-92.675
11
124.654
21
-92.675
0
LINE
8
BLACK
6
CONTINUOUS
10
124.654
20
-92.675
11
124.656
21
-92.6758
0
LINE
8
BLACK
6
CONTINUOUS
10
124.656
20
-92.6758
11
124.659
21
-92.6761
0
LINE
8
BLACK
6
CONTINUOUS
10
124.659
20
-92.6761
11
124.661
21
-92.6773
0
LINE
8
BLACK
6
CONTINUOUS
10
124.661
20
-92.6773
11
124.663
21
-92.678
0
LINE
8
BLACK
6
CONTINUOUS
10
124.663
20
-92.678
11
124.664
21
-92.6794
0
LINE
8
BLACK
6
CONTINUOUS
10
124.664
20
-92.6794
11
124.666
21
-92.6806
0
LINE
8
BLACK
6
CONTINUOUS
10
124.666
20
-92.6806
11
124.668
21
-92.6823
0
LINE
8
BLACK
6
CONTINUOUS
10
124.668
20
-92.6823
11
124.669
21
-92.6837
0
LINE
8
BLACK
6
CONTINUOUS
10
124.669
20
-92.6837
11
124.671
21
-92.6856
0
LINE
8
BLACK
6
CONTINUOUS
10
124.671
20
-92.6856
11
124.672
21
-92.6873
0
LINE
8
BLACK
6
CONTINUOUS
10
124.672
20
-92.6873
11
124.673
21
-92.6894
0
LINE
8
BLACK
6
CONTINUOUS
10
124.673
20
-92.6894
11
124.674
21
-92.6913
0
LINE
8
BLACK
6
CONTINUOUS
10
124.674
20
-92.6913
11
124.674
21
-92.6935
0
LINE
8
BLACK
6
CONTINUOUS
10
124.674
20
-92.6935
11
124.675
21
-92.6956
0
LINE
8
BLACK
6
CONTINUOUS
10
124.675
20
-92.6956
11
124.675
21
-92.6978
0
LINE
8
BLACK
6
CONTINUOUS
10
124.675
20
-92.6978
11
124.675
21
-92.6978
0
LINE
8
BLACK
6
CONTINUOUS
10
124.675
20
-92.6978
11
124.675
21
-96.3022
0
LINE
8
BLACK
6
CONTINUOUS
10
124.675
20
-96.3022
11
124.675
21
-96.3022
0
LINE
8
BLACK
6
CONTINUOUS
10
124.675
20
-96.3022
11
124.675
21
-96.3044
0
LINE
8
BLACK
6
CONTINUOUS
10
124.675
20
-96.3044
11
124.674
21
-96.3065
0
LINE
8
BLACK
6
CONTINUOUS
10
124.674
20
-96.3065
11
124.674
21
-96.3087
0
LINE
8
BLACK
6
CONTINUOUS
10
124.674
20
-96.3087
11
124.673
21
-96.3106
0
LINE
8
BLACK
6
CONTINUOUS
10
124.673
20
-96.3106
11
124.672
21
-96.3127
0
LINE
8
BLACK
6
CONTINUOUS
10
124.672
20
-96.3127
11
124.671
21
-96.3144
0
LINE
8
BLACK
6
CONTINUOUS
10
124.671
20
-96.3144
11
124.669
21
-96.3163
0
LINE
8
BLACK
6
CONTINUOUS
10
124.669
20
-96.3163
11
124.668
21
-96.3177
0
LINE
8
BLACK
6
CONTINUOUS
10
124.668
20
-96.3177
11
124.666
21
-96.3194
0
LINE
8
BLACK
6
CONTINUOUS
10
124.666
20
-96.3194
11
124.664
21
-96.3206
0
LINE
8
BLACK
6
CONTINUOUS
10
124.664
20
-96.3206
11
124.663
21
-96.322
0
LINE
8
BLACK
6
CONTINUOUS
10
124.663
20
-96.322
11
124.661
21
-96.3227
0
LINE
8
BLACK
6
CONTINUOUS
10
124.661
20
-96.3227
11
124.659
21
-96.3239
0
LINE
8
BLACK
6
CONTINUOUS
10
124.659
20
-96.3239
11
124.656
21
-96.3242
0
LINE
8
BLACK
6
CONTINUOUS
10
124.656
20
-96.3242
11
124.654
21
-96.325
0
LINE
8
BLACK
6
CONTINUOUS
10
124.654
20
-96.325
11
124.652
21
-96.325
0
LINE
8
BLACK
6
CONTINUOUS
10
124.652
20
-96.325
11
124.652
21
-96.325
0
LINE
8
BLACK
6
CONTINUOUS
10
124.652
20
-96.325
11
123.348
21
-96.325
0
LINE
8
BLACK
6
CONTINUOUS
10
123.348
20
-96.325
11
123.348
21
-96.325
0
LINE
8
BLACK
6
CONTINUOUS
10
123.348
20
-96.325
11
123.346
21
-96.325
0
LINE
8
BLACK
6
CONTINUOUS
10
123.346
20
-96.325
11
123.344
21
-96.3242
0
LINE
8
BLACK
6
CONTINUOUS
10
123.344
20
-96.3242
11
123.341
21
-96.3239
0
LINE
8
BLACK
6
CONTINUOUS
10
123.341
20
-96.3239
11
123.339
21
-96.3227
0
LINE
8
BLACK
6
CONTINUOUS
10
123.339
20
-96.3227
11
123.337
21
-96.322
0
LINE
8
BLACK
6
CONTINUOUS
10
123.337
20
-96.322
11
123.336
21
-96.3206
0
LINE
8
BLACK
6
CONTINUOUS
10
123.336
20
-96.3206
11
123.334
21
-96.3194
0
LINE
8
BLACK
6
CONTINUOUS
10
123.334
20
-96.3194
11
123.332
21
-96.3177
0
LINE
8
BLACK
6
CONTINUOUS
10
123.332
20
-96.3177
11
123.331
21
-96.3163
0
LINE
8
BLACK
6
CONTINUOUS
10
123.331
20
-96.3163
11
123.329
21
-96.3144
0
LINE
8
BLACK
6
CONTINUOUS
10
123.329
20
-96.3144
11
123.328
21
-96.3127
0
LINE
8
BLACK
6
CONTINUOUS
10
123.328
20
-96.3127
11
123.327
21
-96.3106
0
LINE
8
BLACK
6
CONTINUOUS
10
123.327
20
-96.3106
11
123.326
21
-96.3087
0
LINE
8
BLACK
6
CONTINUOUS
10
123.326
20
-96.3087
11
123.326
21
-96.3065
0
LINE
8
BLACK
6
CONTINUOUS
10
123.326
20
-96.3065
11
123.325
21
-96.3044
0
LINE
8
BLACK
6
CONTINUOUS
10
123.325
20
-96.3044
11
123.325
21
-96.3022
0
LINE
8
BLACK
6
CONTINUOUS
10
123.325
20
-96.3022
11
123.325
21
-96.3022
0
LINE
8
BLACK
6
CONTINUOUS
10
123.325
20
-96.3022
11
123.325
21
-92.6978
0
LINE
8
BLACK
6
CONTINUOUS
10
123.325
20
-92.6978
11
123.325
21
-92.6956
0
LINE
8
BLACK
6
CONTINUOUS
10
123.325
20
-92.6956
11
123.326
21
-92.6935
0
LINE
8
BLACK
6
CONTINUOUS
10
123.326
20
-92.6935
11
123.326
21
-92.6913
0
LINE
8
BLACK
6
CONTINUOUS
10
123.326
20
-92.6913
11
123.327
21
-92.6894
0
LINE
8
BLACK
6
CONTINUOUS
10
123.327
20
-92.6894
11
123.328
21
-92.6873
0
LINE
8
BLACK
6
CONTINUOUS
10
123.328
20
-92.6873
11
123.329
21
-92.6856
0
LINE
8
BLACK
6
CONTINUOUS
10
123.329
20
-92.6856
11
123.331
21
-92.6837
0
LINE
8
BLACK
6
CONTINUOUS
10
123.331
20
-92.6837
11
123.332
21
-92.6823
0
LINE
8
BLACK
6
CONTINUOUS
10
123.332
20
-92.6823
11
123.334
21
-92.6806
0
LINE
8
BLACK
6
CONTINUOUS
10
123.334
20
-92.6806
11
123.336
21
-92.6794
0
LINE
8
BLACK
6
CONTINUOUS
10
123.336
20
-92.6794
11
123.337
21
-92.678
0
LINE
8
BLACK
6
CONTINUOUS
10
123.337
20
-92.678
11
123.339
21
-92.6773
0
LINE
8
BLACK
6
CONTINUOUS
10
123.339
20
-92.6773
11
123.341
21
-92.6761
0
LINE
8
BLACK
6
CONTINUOUS
10
123.341
20
-92.6761
11
123.344
21
-92.6758
0
LINE
8
BLACK
6
CONTINUOUS
10
123.344
20
-92.6758
11
123.346
21
-92.675
0
LINE
8
BLACK
6
CONTINUOUS
10
123.346
20
-92.675
11
123.348
21
-92.675
0
LINE
8
BLACK
6
CONTINUOUS
10
123.348
20
-92.675
11
123.348
21
-92.675
0
LINE
8
BLACK
6
CONTINUOUS
10
123.348
20
-92.675
11
124.652
21
-92.675
0
LINE
8
BLACK
6
CONTINUOUS
10
124.652
20
-92.675
11
124.652
21
-92.675
0
LINE
8
BLACK
6
CONTINUOUS
10
123.375
20
-92.725
11
123.375
21
-96.275
0
LINE
8
BLACK
6
CONTINUOUS
10
123.375
20
-96.275
11
124.625
21
-96.275
0
LINE
8
BLACK
6
CONTINUOUS
10
124.625
20
-96.275
11
124.625
21
-92.725
0
LINE
8
BLACK
6
CONTINUOUS
10
124.625
20
-92.725
11
123.375
21
-92.725
0
LINE
8
BLACK
6
CONTINUOUS
10
142.402
20
-90.575
11
142.404
21
-90.575
0
LINE
8
BLACK
6
CONTINUOUS
10
142.404
20
-90.575
11
142.406
21
-90.5758
0
LINE
8
BLACK
6
CONTINUOUS
10
142.406
20
-90.5758
11
142.409
21
-90.5761
0
LINE
8
BLACK
6
CONTINUOUS
10
142.409
20
-90.5761
11
142.411
21
-90.5773
0
LINE
8
BLACK
6
CONTINUOUS
10
142.411
20
-90.5773
11
142.413
21
-90.578
0
LINE
8
BLACK
6
CONTINUOUS
10
142.413
20
-90.578
11
142.414
21
-90.5794
0
LINE
8
BLACK
6
CONTINUOUS
10
142.414
20
-90.5794
11
142.416
21
-90.5806
0
LINE
8
BLACK
6
CONTINUOUS
10
142.416
20
-90.5806
11
142.418
21
-90.5823
0
LINE
8
BLACK
6
CONTINUOUS
10
142.418
20
-90.5823
11
142.419
21
-90.5837
0
LINE
8
BLACK
6
CONTINUOUS
10
142.419
20
-90.5837
11
142.421
21
-90.5856
0
LINE
8
BLACK
6
CONTINUOUS
10
142.421
20
-90.5856
11
142.422
21
-90.5873
0
LINE
8
BLACK
6
CONTINUOUS
10
142.422
20
-90.5873
11
142.423
21
-90.5894
0
LINE
8
BLACK
6
CONTINUOUS
10
142.423
20
-90.5894
11
142.424
21
-90.5913
0
LINE
8
BLACK
6
CONTINUOUS
10
142.424
20
-90.5913
11
142.424
21
-90.5935
0
LINE
8
BLACK
6
CONTINUOUS
10
142.424
20
-90.5935
11
142.425
21
-90.5956
0
LINE
8
BLACK
6
CONTINUOUS
10
142.425
20
-90.5956
11
142.425
21
-90.5978
0
LINE
8
BLACK
6
CONTINUOUS
10
142.425
20
-90.5978
11
142.425
21
-90.5978
0
LINE
8
BLACK
6
CONTINUOUS
10
142.425
20
-90.5978
11
142.425
21
-94.2022
0
LINE
8
BLACK
6
CONTINUOUS
10
142.425
20
-94.2022
11
142.425
21
-94.2022
0
LINE
8
BLACK
6
CONTINUOUS
10
142.425
20
-94.2022
11
142.425
21
-94.2044
0
LINE
8
BLACK
6
CONTINUOUS
10
142.425
20
-94.2044
11
142.424
21
-94.2065
0
LINE
8
BLACK
6
CONTINUOUS
10
142.424
20
-94.2065
11
142.424
21
-94.2087
0
LINE
8
BLACK
6
CONTINUOUS
10
142.424
20
-94.2087
11
142.423
21
-94.2106
0
LINE
8
BLACK
6
CONTINUOUS
10
142.423
20
-94.2106
11
142.422
21
-94.2127
0
LINE
8
BLACK
6
CONTINUOUS
10
142.422
20
-94.2127
11
142.421
21
-94.2144
0
LINE
8
BLACK
6
CONTINUOUS
10
142.421
20
-94.2144
11
142.419
21
-94.2163
0
LINE
8
BLACK
6
CONTINUOUS
10
142.419
20
-94.2163
11
142.418
21
-94.2177
0
LINE
8
BLACK
6
CONTINUOUS
10
142.418
20
-94.2177
11
142.416
21
-94.2194
0
LINE
8
BLACK
6
CONTINUOUS
10
142.416
20
-94.2194
11
142.414
21
-94.2206
0
LINE
8
BLACK
6
CONTINUOUS
10
142.414
20
-94.2206
11
142.413
21
-94.222
0
LINE
8
BLACK
6
CONTINUOUS
10
142.413
20
-94.222
11
142.411
21
-94.2227
0
LINE
8
BLACK
6
CONTINUOUS
10
142.411
20
-94.2227
11
142.409
21
-94.2239
0
LINE
8
BLACK
6
CONTINUOUS
10
142.409
20
-94.2239
11
142.406
21
-94.2242
0
LINE
8
BLACK
6
CONTINUOUS
10
142.406
20
-94.2242
11
142.404
21
-94.225
0
LINE
8
BLACK
6
CONTINUOUS
10
142.404
20
-94.225
11
142.402
21
-94.225
0
LINE
8
BLACK
6
CONTINUOUS
10
142.402
20
-94.225
11
142.402
21
-94.225
0
LINE
8
BLACK
6
CONTINUOUS
10
142.402
20
-94.225
11
136.248
21
-94.225
0
LINE
8
BLACK
6
CONTINUOUS
10
136.248
20
-94.225
11
136.248
21
-94.225
0
LINE
8
BLACK
6
CONTINUOUS
10
136.248
20
-94.225
11
136.246
21
-94.225
0
LINE
8
BLACK
6
CONTINUOUS
10
136.246
20
-94.225
11
136.244
21
-94.2242
0
LINE
8
BLACK
6
CONTINUOUS
10
136.244
20
-94.2242
11
136.241
21
-94.2239
0
LINE
8
BLACK
6
CONTINUOUS
10
136.241
20
-94.2239
11
136.239
21
-94.2227
0
LINE
8
BLACK
6
CONTINUOUS
10
136.239
20
-94.2227
11
136.237
21
-94.222
0
LINE
8
BLACK
6
CONTINUOUS
10
136.237
20
-94.222
11
136.236
21
-94.2206
0
LINE
8
BLACK
6
CONTINUOUS
10
136.236
20
-94.2206
11
136.234
21
-94.2194
0
LINE
8
BLACK
6
CONTINUOUS
10
136.234
20
-94.2194
11
136.232
21
-94.2177
0
LINE
8
BLACK
6
CONTINUOUS
10
136.232
20
-94.2177
11
136.231
21
-94.2163
0
LINE
8
BLACK
6
CONTINUOUS
10
136.231
20
-94.2163
11
136.229
21
-94.2144
0
LINE
8
BLACK
6
CONTINUOUS
10
136.229
20
-94.2144
11
136.228
21
-94.2127
0
LINE
8
BLACK
6
CONTINUOUS
10
136.228
20
-94.2127
11
136.227
21
-94.2106
0
LINE
8
BLACK
6
CONTINUOUS
10
136.227
20
-94.2106
11
136.226
21
-94.2087
0
LINE
8
BLACK
6
CONTINUOUS
10
136.226
20
-94.2087
11
136.226
21
-94.2065
0
LINE
8
BLACK
6
CONTINUOUS
10
136.226
20
-94.2065
11
136.225
21
-94.2044
0
LINE
8
BLACK
6
CONTINUOUS
10
136.225
20
-94.2044
11
136.225
21
-94.1956
0
LINE
8
BLACK
6
CONTINUOUS
10
136.225
20
-94.1956
11
136.225
21
-90.5978
0
LINE
8
BLACK
6
CONTINUOUS
10
136.225
20
-90.5978
11
136.225
21
-90.5978
0
LINE
8
BLACK
6
CONTINUOUS
10
136.225
20
-90.5978
11
136.225
21
-90.5956
0
LINE
8
BLACK
6
CONTINUOUS
10
136.225
20
-90.5956
11
136.226
21
-90.5935
0
LINE
8
BLACK
6
CONTINUOUS
10
136.226
20
-90.5935
11
136.226
21
-90.5913
0
LINE
8
BLACK
6
CONTINUOUS
10
136.226
20
-90.5913
11
136.227
21
-90.5894
0
LINE
8
BLACK
6
CONTINUOUS
10
136.227
20
-90.5894
11
136.228
21
-90.5873
0
LINE
8
BLACK
6
CONTINUOUS
10
136.228
20
-90.5873
11
136.229
21
-90.5856
0
LINE
8
BLACK
6
CONTINUOUS
10
136.229
20
-90.5856
11
136.231
21
-90.5837
0
LINE
8
BLACK
6
CONTINUOUS
10
136.231
20
-90.5837
11
136.232
21
-90.5823
0
LINE
8
BLACK
6
CONTINUOUS
10
136.232
20
-90.5823
11
136.234
21
-90.5806
0
LINE
8
BLACK
6
CONTINUOUS
10
136.234
20
-90.5806
11
136.236
21
-90.5794
0
LINE
8
BLACK
6
CONTINUOUS
10
136.236
20
-90.5794
11
136.237
21
-90.578
0
LINE
8
BLACK
6
CONTINUOUS
10
136.237
20
-90.578
11
136.239
21
-90.5773
0
LINE
8
BLACK
6
CONTINUOUS
10
136.239
20
-90.5773
11
136.241
21
-90.5761
0
LINE
8
BLACK
6
CONTINUOUS
10
136.241
20
-90.5761
11
136.244
21
-90.5758
0
LINE
8
BLACK
6
CONTINUOUS
10
136.244
20
-90.5758
11
136.246
21
-90.575
0
LINE
8
BLACK
6
CONTINUOUS
10
136.246
20
-90.575
11
136.248
21
-90.575
0
LINE
8
BLACK
6
CONTINUOUS
10
136.248
20
-90.575
11
136.248
21
-90.575
0
LINE
8
BLACK
6
CONTINUOUS
10
136.248
20
-90.575
11
142.402
21
-90.575
0
LINE
8
BLACK
6
CONTINUOUS
10
142.402
20
-90.575
11
142.402
21
-90.575
0
LINE
8
BLACK
6
CONTINUOUS
10
136.275
20
-90.625
11
136.275
21
-94.175
0
LINE
8
BLACK
6
CONTINUOUS
10
136.275
20
-94.175
11
142.375
21
-94.175
0
LINE
8
BLACK
6
CONTINUOUS
10
142.375
20
-94.175
11
142.375
21
-90.625
0
LINE
8
BLACK
6
CONTINUOUS
10
142.375
20
-90.625
11
136.275
21
-90.625
0
LINE
8
BLACK
6
CONTINUOUS
10
135.002
20
-90.975
11
135.004
21
-90.975
0
LINE
8
BLACK
6
CONTINUOUS
10
135.004
20
-90.975
11
135.006
21
-90.9758
0
LINE
8
BLACK
6
CONTINUOUS
10
135.006
20
-90.9758
11
135.009
21
-90.9761
0
LINE
8
BLACK
6
CONTINUOUS
10
135.009
20
-90.9761
11
135.011
21
-90.9773
0
LINE
8
BLACK
6
CONTINUOUS
10
135.011
20
-90.9773
11
135.013
21
-90.978
0
LINE
8
BLACK
6
CONTINUOUS
10
135.013
20
-90.978
11
135.014
21
-90.9794
0
LINE
8
BLACK
6
CONTINUOUS
10
135.014
20
-90.9794
11
135.016
21
-90.9806
0
LINE
8
BLACK
6
CONTINUOUS
10
135.016
20
-90.9806
11
135.018
21
-90.9823
0
LINE
8
BLACK
6
CONTINUOUS
10
135.018
20
-90.9823
11
135.019
21
-90.9837
0
LINE
8
BLACK
6
CONTINUOUS
10
135.019
20
-90.9837
11
135.021
21
-90.9856
0
LINE
8
BLACK
6
CONTINUOUS
10
135.021
20
-90.9856
11
135.022
21
-90.9873
0
LINE
8
BLACK
6
CONTINUOUS
10
135.022
20
-90.9873
11
135.023
21
-90.9894
0
LINE
8
BLACK
6
CONTINUOUS
10
135.023
20
-90.9894
11
135.024
21
-90.9913
0
LINE
8
BLACK
6
CONTINUOUS
10
135.024
20
-90.9913
11
135.024
21
-90.9935
0
LINE
8
BLACK
6
CONTINUOUS
10
135.024
20
-90.9935
11
135.025
21
-90.9956
0
LINE
8
BLACK
6
CONTINUOUS
10
135.025
20
-90.9956
11
135.025
21
-90.9978
0
LINE
8
BLACK
6
CONTINUOUS
10
135.025
20
-90.9978
11
135.025
21
-90.9978
0
LINE
8
BLACK
6
CONTINUOUS
10
135.025
20
-90.9978
11
135.025
21
-94.0022
0
LINE
8
BLACK
6
CONTINUOUS
10
135.025
20
-94.0022
11
135.025
21
-94.0022
0
LINE
8
BLACK
6
CONTINUOUS
10
135.025
20
-94.0022
11
135.025
21
-94.0044
0
LINE
8
BLACK
6
CONTINUOUS
10
135.025
20
-94.0044
11
135.024
21
-94.0065
0
LINE
8
BLACK
6
CONTINUOUS
10
135.024
20
-94.0065
11
135.024
21
-94.0087
0
LINE
8
BLACK
6
CONTINUOUS
10
135.024
20
-94.0087
11
135.023
21
-94.0106
0
LINE
8
BLACK
6
CONTINUOUS
10
135.023
20
-94.0106
11
135.022
21
-94.0127
0
LINE
8
BLACK
6
CONTINUOUS
10
135.022
20
-94.0127
11
135.021
21
-94.0144
0
LINE
8
BLACK
6
CONTINUOUS
10
135.021
20
-94.0144
11
135.019
21
-94.0163
0
LINE
8
BLACK
6
CONTINUOUS
10
135.019
20
-94.0163
11
135.018
21
-94.0177
0
LINE
8
BLACK
6
CONTINUOUS
10
135.018
20
-94.0177
11
135.016
21
-94.0194
0
LINE
8
BLACK
6
CONTINUOUS
10
135.016
20
-94.0194
11
135.014
21
-94.0206
0
LINE
8
BLACK
6
CONTINUOUS
10
135.014
20
-94.0206
11
135.013
21
-94.022
0
LINE
8
BLACK
6
CONTINUOUS
10
135.013
20
-94.022
11
135.011
21
-94.0227
0
LINE
8
BLACK
6
CONTINUOUS
10
135.011
20
-94.0227
11
135.009
21
-94.0239
0
LINE
8
BLACK
6
CONTINUOUS
10
135.009
20
-94.0239
11
135.006
21
-94.0242
0
LINE
8
BLACK
6
CONTINUOUS
10
135.006
20
-94.0242
11
135.004
21
-94.025
0
LINE
8
BLACK
6
CONTINUOUS
10
135.004
20
-94.025
11
135.002
21
-94.025
0
LINE
8
BLACK
6
CONTINUOUS
10
135.002
20
-94.025
11
135.002
21
-94.025
0
LINE
8
BLACK
6
CONTINUOUS
10
135.002
20
-94.025
11
125.998
21
-94.025
0
LINE
8
BLACK
6
CONTINUOUS
10
125.998
20
-94.025
11
125.998
21
-94.025
0
LINE
8
BLACK
6
CONTINUOUS
10
125.998
20
-94.025
11
125.996
21
-94.025
0
LINE
8
BLACK
6
CONTINUOUS
10
125.996
20
-94.025
11
125.994
21
-94.0242
0
LINE
8
BLACK
6
CONTINUOUS
10
125.994
20
-94.0242
11
125.991
21
-94.0239
0
LINE
8
BLACK
6
CONTINUOUS
10
125.991
20
-94.0239
11
125.989
21
-94.0227
0
LINE
8
BLACK
6
CONTINUOUS
10
125.989
20
-94.0227
11
125.987
21
-94.022
0
LINE
8
BLACK
6
CONTINUOUS
10
125.987
20
-94.022
11
125.986
21
-94.0206
0
LINE
8
BLACK
6
CONTINUOUS
10
125.986
20
-94.0206
11
125.984
21
-94.0194
0
LINE
8
BLACK
6
CONTINUOUS
10
125.984
20
-94.0194
11
125.982
21
-94.0177
0
LINE
8
BLACK
6
CONTINUOUS
10
125.982
20
-94.0177
11
125.981
21
-94.0163
0
LINE
8
BLACK
6
CONTINUOUS
10
125.981
20
-94.0163
11
125.979
21
-94.0144
0
LINE
8
BLACK
6
CONTINUOUS
10
125.979
20
-94.0144
11
125.978
21
-94.0127
0
LINE
8
BLACK
6
CONTINUOUS
10
125.978
20
-94.0127
11
125.977
21
-94.0106
0
LINE
8
BLACK
6
CONTINUOUS
10
125.977
20
-94.0106
11
125.976
21
-94.0087
0
LINE
8
BLACK
6
CONTINUOUS
10
125.976
20
-94.0087
11
125.976
21
-94.0065
0
LINE
8
BLACK
6
CONTINUOUS
10
125.976
20
-94.0065
11
125.975
21
-94.0044
0
LINE
8
BLACK
6
CONTINUOUS
10
125.975
20
-94.0044
11
125.975
21
-93.9956
0
LINE
8
BLACK
6
CONTINUOUS
10
125.975
20
-93.9956
11
125.975
21
-90.9978
0
LINE
8
BLACK
6
CONTINUOUS
10
125.975
20
-90.9978
11
125.975
21
-90.9978
0
LINE
8
BLACK
6
CONTINUOUS
10
125.975
20
-90.9978
11
125.975
21
-90.9956
0
LINE
8
BLACK
6
CONTINUOUS
10
125.975
20
-90.9956
11
125.976
21
-90.9935
0
LINE
8
BLACK
6
CONTINUOUS
10
125.976
20
-90.9935
11
125.976
21
-90.9913
0
LINE
8
BLACK
6
CONTINUOUS
10
125.976
20
-90.9913
11
125.977
21
-90.9894
0
LINE
8
BLACK
6
CONTINUOUS
10
125.977
20
-90.9894
11
125.978
21
-90.9873
0
LINE
8
BLACK
6
CONTINUOUS
10
125.978
20
-90.9873
11
125.979
21
-90.9856
0
LINE
8
BLACK
6
CONTINUOUS
10
125.979
20
-90.9856
11
125.981
21
-90.9837
0
LINE
8
BLACK
6
CONTINUOUS
10
125.981
20
-90.9837
11
125.982
21
-90.9823
0
LINE
8
BLACK
6
CONTINUOUS
10
125.982
20
-90.9823
11
125.984
21
-90.9806
0
LINE
8
BLACK
6
CONTINUOUS
10
125.984
20
-90.9806
11
125.986
21
-90.9794
0
LINE
8
BLACK
6
CONTINUOUS
10
125.986
20
-90.9794
11
125.987
21
-90.978
0
LINE
8
BLACK
6
CONTINUOUS
10
125.987
20
-90.978
11
125.989
21
-90.9773
0
LINE
8
BLACK
6
CONTINUOUS
10
125.989
20
-90.9773
11
125.991
21
-90.9761
0
LINE
8
BLACK
6
CONTINUOUS
10
125.991
20
-90.9761
11
125.994
21
-90.9758
0
LINE
8
BLACK
6
CONTINUOUS
10
125.994
20
-90.9758
11
125.996
21
-90.975
0
LINE
8
BLACK
6
CONTINUOUS
10
125.996
20
-90.975
11
125.998
21
-90.975
0
LINE
8
BLACK
6
CONTINUOUS
10
125.998
20
-90.975
11
125.998
21
-90.975
0
LINE
8
BLACK
6
CONTINUOUS
10
125.998
20
-90.975
11
135.002
21
-90.975
0
LINE
8
BLACK
6
CONTINUOUS
10
135.002
20
-90.975
11
135.002
21
-90.975
0
LINE
8
BLACK
6
CONTINUOUS
10
126.025
20
-91.025
11
126.025
21
-93.975
0
LINE
8
BLACK
6
CONTINUOUS
10
126.025
20
-93.975
11
134.975
21
-93.975
0
LINE
8
BLACK
6
CONTINUOUS
10
134.975
20
-93.975
11
134.975
21
-91.025
0
LINE
8
BLACK
6
CONTINUOUS
10
134.975
20
-91.025
11
126.025
21
-91.025
  0
ENDSEC
  0
EOF
